999
dxfrw 0.6.3
  0
SECTION
  2
HEADER
  9
$ACADVER
  1
AC1021
  9
$DWGCODEPAGE
  3
ANSI_1252
  9
$INSBASE
 10
0
 20
0
 30
0
  9
$EXTMIN
 10
-77.49030100002017
 20
11.9964819701194
 30
0
  9
$EXTMAX
 10
229.0842825910373
 20
234.552162855562
 30
0
  9
$LIMMIN
 10
0
 20
0
  9
$LIMMAX
 10
420
 20
297
  9
$ORTHOMODE
 70
    0
  9
$REGENMODE
 70
    1
  9
$FILLMODE
 70
    1
  9
$QTEXTMODE
 70
    0
  9
$MIRRTEXT
 70
    0
  9
$LTSCALE
 40
1
  9
$ATTMODE
 70
    0
  9
$TEXTSIZE
 40
2.5
  9
$TRACEWID
 40
15.68
  9
$TEXTSTYLE
  7
STANDARD
  9
$CLAYER
  8
0
  9
$CELTYPE
  6
BYLAYER
  9
$CECOLOR
 62
  256
  9
$CELTSCALE
 40
1
  9
$DISPSILH
 70
    0
  9
$DIMSCALE
 40
2.5
  9
$DIMASZ
 40
2.5
  9
$DIMEXO
 40
0.625
  9
$DIMDLI
 40
3.75
  9
$DIMRND
 40
0
  9
$DIMDLE
 40
0
  9
$DIMEXE
 40
1.25
  9
$DIMTP
 40
0
  9
$DIMTM
 40
0
  9
$DIMTXT
 40
2.5
  9
$DIMCEN
 40
2.5
  9
$DIMTSZ
 40
0
  9
$DIMTOL
 70
    0
  9
$DIMLIM
 70
    0
  9
$DIMTIH
 70
    0
  9
$DIMTOH
 70
    0
  9
$DIMSE1
 70
    0
  9
$DIMSE2
 70
    0
  9
$DIMTAD
 70
    1
  9
$DIMZIN
 70
    8
  9
$DIMBLK
  1

  9
$DIMASO
 70
    1
  9
$DIMSHO
 70
    1
  9
$DIMPOST
  1

  9
$DIMAPOST
  1

  9
$DIMALT
 70
    0
  9
$DIMALTD
 70
    3
  9
$DIMALTF
 40
0.03937
  9
$DIMLFAC
 40
1
  9
$DIMTOFL
 70
    1
  9
$DIMTVP
 40
0
  9
$DIMTIX
 70
    0
  9
$DIMSOXD
 70
    0
  9
$DIMSAH
 70
    0
  9
$DIMBLK1
  1

  9
$DIMBLK2
  1

  9
$DIMSTYLE
  2
STANDARD
  9
$DIMCLRD
 70
    0
  9
$DIMCLRE
 70
    0
  9
$DIMCLRT
 70
    0
  9
$DIMTFAC
 40
1
  9
$DIMGAP
 40
0.625
  9
$DIMJUST
 70
    0
  9
$DIMSD1
 70
    0
  9
$DIMSD2
 70
    0
  9
$DIMTOLJ
 70
    0
  9
$DIMTZIN
 70
    8
  9
$DIMALTZ
 70
    0
  9
$DIMALTTZ
 70
    0
  9
$DIMUPT
 70
    0
  9
$DIMDEC
 70
    2
  9
$DIMTDEC
 70
    2
  9
$DIMALTU
 70
    2
  9
$DIMALTTD
 70
    3
  9
$DIMTXSTY
  7
STANDARD
  9
$DIMAUNIT
 70
    0
  9
$DIMADEC
 70
    0
  9
$DIMALTRND
 40
0
  9
$DIMAZIN
 70
    0
  9
$DIMDSEP
 70
   44
  9
$DIMATFIT
 70
    3
  9
$DIMFRAC
 70
    0
  9
$DIMLDRBLK
  1
STANDARD
  9
$DIMLUNIT
 70
    2
  9
$DIMLWD
 70
   -2
  9
$DIMLWE
 70
   -2
  9
$DIMTMOVE
 70
    0
  9
$DIMFXL
 40
1
  9
$DIMFXLON
 70
    0
  9
$DIMJOGANG
 40
0.7854
  9
$DIMTFILL
 70
    0
  9
$DIMTFILLCLR
 70
    0
  9
$DIMARCSYM
 70
    0
  9
$DIMLTYPE
  6

  9
$DIMLTEX1
  6

  9
$DIMLTEX2
  6

  9
$LUNITS
 70
    2
  9
$LUPREC
 70
    4
  9
$SKETCHINC
 40
1
  9
$FILLETRAD
 40
0
  9
$AUNITS
 70
    0
  9
$AUPREC
 70
    2
  9
$MENU
  1
.
  9
$ELEVATION
 40
0
  9
$PELEVATION
 40
0
  9
$THICKNESS
 40
0
  9
$LIMCHECK
 70
    0
  9
$CHAMFERA
 40
0
  9
$CHAMFERB
 40
0
  9
$CHAMFERC
 40
0
  9
$CHAMFERD
 40
0
  9
$SKPOLY
 70
    0
  9
$USRTIMER
 70
    1
  9
$ANGBASE
 50
0
  9
$ANGDIR
 70
    0
  9
$PDMODE
 70
   34
  9
$PDSIZE
 40
0
  9
$PLINEWID
 40
0
  9
$SPLFRAME
 70
    0
  9
$SPLINETYPE
 70
    2
  9
$SPLINESEGS
 70
    8
  9
$HANDSEED
  5
20000
  9
$SURFTAB1
 70
    6
  9
$SURFTAB2
 70
    6
  9
$SURFTYPE
 70
    6
  9
$SURFU
 70
    6
  9
$SURFV
 70
    6
  9
$UCSBASE
  2

  9
$UCSNAME
  2

  9
$UCSORG
 10
0
 20
0
 30
0
  9
$UCSXDIR
 10
1
 20
0
 30
0
  9
$UCSYDIR
 10
0
 20
1
 30
0
  9
$UCSORTHOREF
  2

  9
$UCSORTHOVIEW
 70
    0
  9
$UCSORGTOP
 10
0
 20
0
 30
0
  9
$UCSORGBOTTOM
 10
0
 20
0
 30
0
  9
$UCSORGLEFT
 10
0
 20
0
 30
0
  9
$UCSORGRIGHT
 10
0
 20
0
 30
0
  9
$UCSORGFRONT
 10
0
 20
0
 30
0
  9
$UCSORGBACK
 10
0
 20
0
 30
0
  9
$PUCSBASE
  2

  9
$PUCSNAME
  2

  9
$PUCSORG
 10
0
 20
0
 30
0
  9
$PUCSXDIR
 10
1
 20
0
 30
0
  9
$PUCSYDIR
 10
0
 20
1
 30
0
  9
$PUCSORTHOREF
  2

  9
$PUCSORTHOVIEW
 70
    0
  9
$PUCSORGTOP
 10
0
 20
0
 30
0
  9
$PUCSORGBOTTOM
 10
0
 20
0
 30
0
  9
$PUCSORGLEFT
 10
0
 20
0
 30
0
  9
$PUCSORGRIGHT
 10
0
 20
0
 30
0
  9
$PUCSORGFRONT
 10
0
 20
0
 30
0
  9
$PUCSORGBACK
 10
0
 20
0
 30
0
  9
$USERI1
 70
    0
  9
$USERI2
 70
    0
  9
$USERI3
 70
    0
  9
$USERI4
 70
    0
  9
$USERI5
 70
    0
  9
$USERR1
 40
0
  9
$USERR2
 40
0
  9
$USERR3
 40
0
  9
$USERR4
 40
0
  9
$USERR5
 40
0
  9
$WORLDVIEW
 70
    1
  9
$SHADEDGE
 70
    3
  9
$SHADEDIF
 70
   70
  9
$TILEMODE
 70
    1
  9
$MAXACTVP
 70
   64
  9
$PINSBASE
 10
0
 20
0
 30
0
  9
$PLIMCHECK
 70
    0
  9
$PEXTMIN
 10
0
 20
0
 30
0
  9
$PEXTMAX
 10
0
 20
0
 30
0
  9
$GRIDMODE
 70
    1
  9
$SNAPSTYLE
 70
    0
  9
$PLIMMIN
 10
0
 20
0
  9
$PLIMMAX
 10
210
 20
297
  9
$UNITMODE
 70
    0
  9
$VISRETAIN
 70
    1
  9
$PLINEGEN
 70
    0
  9
$PSLTSCALE
 70
    1
  9
$TREEDEPTH
 70
 3020
  9
$CMLSTYLE
  2
Standard
  9
$CMLJUST
 70
    0
  9
$CMLSCALE
 40
20
  9
$PROXYGRAPHICS
 70
    1
  9
$MEASUREMENT
 70
    1
  9
$CELWEIGHT
370
   -1
  9
$ENDCAPS
280
    0
  9
$JOINSTYLE
280
    0
  9
$LWDISPLAY
290
    0
  9
$INSUNITS
 70
    4
  9
$HYPERLINKBASE
  1

  9
$STYLESHEET
  1

  9
$XEDIT
290
    1
  9
$CEPSNTYPE
380
    0
  9
$PSTYLEMODE
290
    1
  9
$EXTNAMES
290
    1
  9
$PSVPSCALE
 40
1
  9
$OLESTARTUP
290
    0
  9
$SORTENTS
280
  127
  9
$INDEXCTL
280
    0
  9
$HIDETEXT
280
    1
  9
$XCLIPFRAME
290
    0
  9
$HALOGAP
280
    0
  9
$OBSCOLOR
 70
  257
  9
$OBSLTYPE
280
    0
  9
$INTERSECTIONDISPLAY
280
    0
  9
$INTERSECTIONCOLOR
 70
  257
  9
$DIMASSOC
280
    1
  9
$PROJECTNAME
  1

  9
$CAMERADISPLAY
290
    0
  9
$LENSLENGTH
 40
50
  9
$CAMERAHEIGHT
 40
0
  9
$STEPSPERSEC
 40
2
  9
$STEPSIZE
 40
50
  9
$3DDWFPREC
 40
2
  9
$PSOLWIDTH
 40
5
  9
$PSOLHEIGHT
 40
80
  9
$LOFTANG1
 40
1.570796326794897
  9
$LOFTANG2
 40
1.570796326794897
  9
$LOFTMAG1
 40
0
  9
$LOFTMAG2
 40
0
  9
$LOFTPARAM
 70
    7
  9
$LOFTNORMALS
280
    1
  9
$LATITUDE
 40
1
  9
$LONGITUDE
 40
1
  9
$NORTHDIRECTION
 40
0
  9
$TIMEZONE
 70
-8000
  9
$LIGHTGLYPHDISPLAY
280
    1
  9
$TILEMODELIGHTSYNCH
280
    1
  9
$SOLIDHIST
280
    1
  9
$SHOWHIST
280
    1
  9
$DWFFRAME
280
    2
  9
$DGNFRAME
280
    0
  9
$REALWORLDSCALE
290
    1
  9
$INTERFERECOLOR
 62
    1
  9
$CSHADOW
280
    0
  9
$SHADOWPLANELOCATION
 40
0
  0
ENDSEC
  0
SECTION
  2
CLASSES
  0
ENDSEC
  0
SECTION
  2
TABLES
  0
TABLE
  2
VPORT
  5
8
330
0
100
AcDbSymbolTable
 70
    1
  0
VPORT
  5
31
330
2
100
AcDbSymbolTableRecord
100
AcDbViewportTableRecord
  2
*ACTIVE
 70
    0
 10
0
 20
0
 11
1
 21
1
 12
296.0667134659008
 22
193.7700777990271
 13
0
 23
0
 14
10
 24
10
 15
10
 25
10
 16
0
 26
0
 36
1
 17
0
 27
0
 37
0
 40
549.538923343547
 41
1.956797966963151
 42
50
 43
0
 44
0
 50
0
 51
0
 71
    0
 72
  100
 73
    1
 74
    3
 75
    0
 76
    1
 77
    0
 78
    1
281
    0
 65
    1
110
0
120
0
130
0
111
1
121
0
131
0
112
0
122
1
132
0
 79
    0
146
0
348
10020
 60
    7
 61
    5
292
1
282
    1
141
0
142
0
 63
  250
421
3358443
  0
ENDTAB
  0
TABLE
  2
LTYPE
  5
5
330
0
100
AcDbSymbolTable
 70
    4
  0
LTYPE
  5
14
330
5
100
AcDbSymbolTableRecord
100
AcDbLinetypeTableRecord
  2
ByBlock
 70
    0
  3

 72
   65
 73
    0
 40
0
  0
LTYPE
  5
15
330
5
100
AcDbSymbolTableRecord
100
AcDbLinetypeTableRecord
  2
ByLayer
 70
    0
  3

 72
   65
 73
    0
 40
0
  0
LTYPE
  5
16
330
5
100
AcDbSymbolTableRecord
100
AcDbLinetypeTableRecord
  2
Continuous
 70
    0
  3
Solid line
 72
   65
 73
    0
 40
0
  0
LTYPE
  5
32
330
5
100
AcDbSymbolTableRecord
100
AcDbLinetypeTableRecord
  2
DOT
 70
    0
  3
Dot . . . . . . . . . . . . . . . . . . . . . .
 72
   65
 73
    2
 40
6.35
 49
0
 74
    0
 49
-6.35
 74
    0
  0
LTYPE
  5
33
330
5
100
AcDbSymbolTableRecord
100
AcDbLinetypeTableRecord
  2
DOTTINY
 70
    0
  3
Dot (.15x) .....................................
 72
   65
 73
    2
 40
0.9525
 49
0
 74
    0
 49
-0.9525
 74
    0
  0
LTYPE
  5
34
330
5
100
AcDbSymbolTableRecord
100
AcDbLinetypeTableRecord
  2
DOT2
 70
    0
  3
Dot (.5x) .....................................
 72
   65
 73
    2
 40
3.175
 49
0
 74
    0
 49
-3.175
 74
    0
  0
LTYPE
  5
35
330
5
100
AcDbSymbolTableRecord
100
AcDbLinetypeTableRecord
  2
DOTX2
 70
    0
  3
Dot (2x) .  .  .  .  .  .  .  .  .  .  .  .  .
 72
   65
 73
    2
 40
12.7
 49
0
 74
    0
 49
-12.7
 74
    0
  0
LTYPE
  5
36
330
5
100
AcDbSymbolTableRecord
100
AcDbLinetypeTableRecord
  2
DASHED
 70
    0
  3
Dashed _ _ _ _ _ _ _ _ _ _ _ _ _ _ _ _ _
 72
   65
 73
    2
 40
19.05
 49
12.7
 74
    0
 49
-6.35
 74
    0
  0
LTYPE
  5
37
330
5
100
AcDbSymbolTableRecord
100
AcDbLinetypeTableRecord
  2
DASHEDTINY
 70
    0
  3
Dashed (.15x) _ _ _ _ _ _ _ _ _ _ _ _ _ _ _ _ _
 72
   65
 73
    2
 40
2.8575
 49
1.905
 74
    0
 49
-0.9525
 74
    0
  0
LTYPE
  5
38
330
5
100
AcDbSymbolTableRecord
100
AcDbLinetypeTableRecord
  2
DASHED2
 70
    0
  3
Dashed (.5x) _ _ _ _ _ _ _ _ _ _ _ _ _ _ _ _ _
 72
   65
 73
    2
 40
9.524999999999999
 49
6.35
 74
    0
 49
-3.175
 74
    0
  0
LTYPE
  5
39
330
5
100
AcDbSymbolTableRecord
100
AcDbLinetypeTableRecord
  2
DASHEDX2
 70
    0
  3
Dashed (2x) ____  ____  ____  ____  ____  ___
 72
   65
 73
    2
 40
38.09999999999999
 49
25.4
 74
    0
 49
-12.7
 74
    0
  0
LTYPE
  5
3A
330
5
100
AcDbSymbolTableRecord
100
AcDbLinetypeTableRecord
  2
DASHDOT
 70
    0
  3
Dash dot __ . __ . __ . __ . __ . __ . __ . __
 72
   65
 73
    4
 40
25.4
 49
12.7
 74
    0
 49
-6.35
 74
    0
 49
0
 74
    0
 49
-6.35
 74
    0
  0
LTYPE
  5
3B
330
5
100
AcDbSymbolTableRecord
100
AcDbLinetypeTableRecord
  2
DASHDOTTINY
 70
    0
  3
Dash dot (.15x) _._._._._._._._._._._._._._._.
 72
   65
 73
    4
 40
3.81
 49
1.905
 74
    0
 49
-0.9525
 74
    0
 49
0
 74
    0
 49
-0.9525
 74
    0
  0
LTYPE
  5
3C
330
5
100
AcDbSymbolTableRecord
100
AcDbLinetypeTableRecord
  2
DASHDOT2
 70
    0
  3
Dash dot (.5x) _._._._._._._._._._._._._._._.
 72
   65
 73
    4
 40
12.7
 49
6.35
 74
    0
 49
-3.175
 74
    0
 49
0
 74
    0
 49
-3.175
 74
    0
  0
LTYPE
  5
3D
330
5
100
AcDbSymbolTableRecord
100
AcDbLinetypeTableRecord
  2
DASHDOTX2
 70
    0
  3
Dash dot (2x) ____  .  ____  .  ____  .  ___
 72
   65
 73
    4
 40
50.8
 49
25.4
 74
    0
 49
-12.7
 74
    0
 49
0
 74
    0
 49
-12.7
 74
    0
  0
LTYPE
  5
3E
330
5
100
AcDbSymbolTableRecord
100
AcDbLinetypeTableRecord
  2
DIVIDE
 70
    0
  3
Divide ____ . . ____ . . ____ . . ____ . . ____
 72
   65
 73
    6
 40
31.75
 49
12.7
 74
    0
 49
-6.35
 74
    0
 49
0
 74
    0
 49
-6.35
 74
    0
 49
0
 74
    0
 49
-6.35
 74
    0
  0
LTYPE
  5
3F
330
5
100
AcDbSymbolTableRecord
100
AcDbLinetypeTableRecord
  2
DIVIDETINY
 70
    0
  3
Divide (.15x) __..__..__..__..__..__..__..__.._
 72
   65
 73
    6
 40
4.7625
 49
1.905
 74
    0
 49
-0.9525
 74
    0
 49
0
 74
    0
 49
-0.9525
 74
    0
 49
0
 74
    0
 49
-0.9525
 74
    0
  0
LTYPE
  5
40
330
5
100
AcDbSymbolTableRecord
100
AcDbLinetypeTableRecord
  2
DIVIDE2
 70
    0
  3
Divide (.5x) __..__..__..__..__..__..__..__.._
 72
   65
 73
    6
 40
15.875
 49
6.35
 74
    0
 49
-3.175
 74
    0
 49
0
 74
    0
 49
-3.175
 74
    0
 49
0
 74
    0
 49
-3.175
 74
    0
  0
LTYPE
  5
41
330
5
100
AcDbSymbolTableRecord
100
AcDbLinetypeTableRecord
  2
DIVIDEX2
 70
    0
  3
Divide (2x) ________  .  .  ________  .  .  _
 72
   65
 73
    6
 40
63.5
 49
25.4
 74
    0
 49
-12.7
 74
    0
 49
0
 74
    0
 49
-12.7
 74
    0
 49
0
 74
    0
 49
-12.7
 74
    0
  0
LTYPE
  5
42
330
5
100
AcDbSymbolTableRecord
100
AcDbLinetypeTableRecord
  2
BORDER
 70
    0
  3
Border __ __ . __ __ . __ __ . __ __ . __ __ .
 72
   65
 73
    6
 40
44.45
 49
12.7
 74
    0
 49
-6.35
 74
    0
 49
12.7
 74
    0
 49
-6.35
 74
    0
 49
0
 74
    0
 49
-6.35
 74
    0
  0
LTYPE
  5
43
330
5
100
AcDbSymbolTableRecord
100
AcDbLinetypeTableRecord
  2
BORDERTINY
 70
    0
  3
Border (.15x) __.__.__.__.__.__.__.__.__.__.__.
 72
   65
 73
    6
 40
6.6675
 49
1.905
 74
    0
 49
-0.9525
 74
    0
 49
1.905
 74
    0
 49
-0.9525
 74
    0
 49
0
 74
    0
 49
-0.9525
 74
    0
  0
LTYPE
  5
44
330
5
100
AcDbSymbolTableRecord
100
AcDbLinetypeTableRecord
  2
BORDER2
 70
    0
  3
Border (.5x) __.__.__.__.__.__.__.__.__.__.__.
 72
   65
 73
    6
 40
22.225
 49
6.35
 74
    0
 49
-3.175
 74
    0
 49
6.35
 74
    0
 49
-3.175
 74
    0
 49
0
 74
    0
 49
-3.175
 74
    0
  0
LTYPE
  5
45
330
5
100
AcDbSymbolTableRecord
100
AcDbLinetypeTableRecord
  2
BORDERX2
 70
    0
  3
Border (2x) ____  ____  .  ____  ____  .  ___
 72
   65
 73
    6
 40
88.89999999999999
 49
25.4
 74
    0
 49
-12.7
 74
    0
 49
25.4
 74
    0
 49
-12.7
 74
    0
 49
0
 74
    0
 49
-12.7
 74
    0
  0
LTYPE
  5
46
330
5
100
AcDbSymbolTableRecord
100
AcDbLinetypeTableRecord
  2
CENTER
 70
    0
  3
Center ____ _ ____ _ ____ _ ____ _ ____ _ ____
 72
   65
 73
    4
 40
50.8
 49
31.75
 74
    0
 49
-6.35
 74
    0
 49
6.35
 74
    0
 49
-6.35
 74
    0
  0
LTYPE
  5
47
330
5
100
AcDbSymbolTableRecord
100
AcDbLinetypeTableRecord
  2
CENTERTINY
 70
    0
  3
Center (.15x) ___ _ ___ _ ___ _ ___ _ ___ _ ___
 72
   65
 73
    4
 40
7.62
 49
4.7625
 74
    0
 49
-0.9525
 74
    0
 49
0.9525
 74
    0
 49
-0.9525
 74
    0
  0
LTYPE
  5
48
330
5
100
AcDbSymbolTableRecord
100
AcDbLinetypeTableRecord
  2
CENTER2
 70
    0
  3
Center (.5x) ___ _ ___ _ ___ _ ___ _ ___ _ ___
 72
   65
 73
    4
 40
28.575
 49
19.05
 74
    0
 49
-3.175
 74
    0
 49
3.175
 74
    0
 49
-3.175
 74
    0
  0
LTYPE
  5
49
330
5
100
AcDbSymbolTableRecord
100
AcDbLinetypeTableRecord
  2
CENTERX2
 70
    0
  3
Center (2x) ________  __  ________  __  _____
 72
   65
 73
    4
 40
101.6
 49
63.5
 74
    0
 49
-12.7
 74
    0
 49
12.7
 74
    0
 49
-12.7
 74
    0
  0
ENDTAB
  0
TABLE
  2
LAYER
  5
2
330
0
100
AcDbSymbolTable
 70
    1
  0
LAYER
  5
10
330
2
100
AcDbSymbolTableRecord
100
AcDbLayerTableRecord
  2
0
 70
    0
 62
    7
  6
CONTINUOUS
370
    0
390
F
  0
ENDTAB
  0
TABLE
  2
STYLE
  5
3
330
0
100
AcDbSymbolTable
 70
    3
  0
STYLE
  5
4A
330
2
100
AcDbSymbolTableRecord
100
AcDbTextStyleTableRecord
  2
Standard
 70
    0
 40
0
 41
1
 50
0
 71
    0
 42
1
  3
txt
  4

  0
ENDTAB
  0
TABLE
  2
VIEW
  5
6
330
0
100
AcDbSymbolTable
 70
    0
  0
ENDTAB
  0
TABLE
  2
UCS
  5
7
330
0
100
AcDbSymbolTable
 70
    0
  0
ENDTAB
  0
TABLE
  2
APPID
  5
9
330
0
100
AcDbSymbolTable
 70
    1
  0
APPID
  5
12
330
9
100
AcDbSymbolTableRecord
100
AcDbRegAppTableRecord
  2
ACAD
 70
    0
  0
APPID
  5
4B
330
9
100
AcDbSymbolTableRecord
100
AcDbRegAppTableRecord
  2
LibreCad
 70
    0
  0
ENDTAB
  0
TABLE
  2
DIMSTYLE
  5
A
330
0
100
AcDbSymbolTable
 70
    1
100
AcDbDimStyleTable
 71
    1
  0
DIMSTYLE
105
4C
330
A
100
AcDbSymbolTableRecord
100
AcDbDimStyleTableRecord
  2
Standard
 70
    0
 40
2.5
 41
2.5
 42
0.625
 43
0.38
 44
1.25
 45
0
 46
0
 47
0
 48
0
 49
1
140
2.5
141
0.09
142
0
143
25.4
144
1
145
0
146
1
147
0.625
148
0
 71
    0
 72
    0
 73
    0
 74
    1
 75
    0
 76
    0
 77
    0
 78
    8
 79
    0
170
    0
171
    2
172
    0
173
    0
174
    0
175
    0
176
    0
177
    0
178
    0
179
    0
271
    2
272
    4
273
    2
274
    2
275
    0
276
    0
277
    2
278
   44
279
    0
280
    0
281
    0
282
    0
283
    1
284
    0
285
    0
286
    0
288
    0
289
    3
340
STANDARD
341

371
   -2
372
   -2
  0
ENDTAB
  0
TABLE
  2
BLOCK_RECORD
  5
1
330
0
100
AcDbSymbolTable
 70
    2
  0
BLOCK_RECORD
  5
1F
330
1
100
AcDbSymbolTableRecord
100
AcDbBlockTableRecord
  2
*Model_Space
 70
    0
280
    1
281
    0
  0
BLOCK_RECORD
  5
1E
330
1
100
AcDbSymbolTableRecord
100
AcDbBlockTableRecord
  2
*Paper_Space
 70
    0
280
    1
281
    0
  0
ENDTAB
  0
ENDSEC
  0
SECTION
  2
BLOCKS
  0
BLOCK
  5
20
330
1F
100
AcDbEntity
  8
0
100
AcDbBlockBegin
  2
*Model_Space
 70
    0
 10
0
 20
0
 30
0
  3
*Model_Space
  1

  0
ENDBLK
  5
21
330
1F
100
AcDbEntity
  8
0
100
AcDbBlockEnd
  0
BLOCK
  5
1C
330
1B
100
AcDbEntity
  8
0
100
AcDbBlockBegin
  2
*Paper_Space
 70
    0
 10
0
 20
0
 30
0
  3
*Paper_Space
  1

  0
ENDBLK
  5
1D
330
1F
100
AcDbEntity
  8
0
100
AcDbBlockEnd
  0
ENDSEC
  0
SECTION
  2
ENTITIES
  0
ARC
  5
4D
100
AcDbEntity
  8
0
  6
ByLayer
 62
  256
370
   -1
100
AcDbCircle
 10
0
 20
70
 40
17
100
AcDbArc
 50
110.6673164935125
 51
177.9773759469338
  0
LINE
  5
4E
100
AcDbEntity
  8
0
  6
ByLayer
 62
  256
370
   -1
100
AcDbLine
 10
-17
 20
51.6696972201766
 11
-15
 21
51.6696972201766
  0
LINE
  5
4F
100
AcDbEntity
  8
0
  6
ByLayer
 62
  256
370
   -1
100
AcDbLine
 10
-17
 20
51.6696972201766
 11
-17.00000001148284
 21
52.8699970021817
  0
LINE
  5
50
100
AcDbEntity
  8
0
  6
ByLayer
 62
  256
370
   -1
100
AcDbLine
 10
-17.00000001148284
 20
52.8699970021817
 11
-15
 21
52.8696972201766
  0
LINE
  5
51
100
AcDbEntity
  8
0
  6
ByLayer
 62
  256
370
   -1
100
AcDbLine
 10
-17.00000008915832
 20
60.98940184067692
 11
-17.00000016961953
 21
69.39999886920289
  0
LINE
  5
52
100
AcDbEntity
  8
0
  6
ByLayer
 62
  256
370
   -1
100
AcDbLine
 10
-15
 20
52.8696972201766
 11
-17.00000008915832
 21
60.98940184067693
  0
LINE
  5
53
100
AcDbEntity
  8
0
  6
ByLayer
 62
  256
370
   -1
100
AcDbLine
 10
-15
 20
51.6696972201766
 11
-15
 21
49
  0
LINE
  5
54
100
AcDbEntity
  8
0
  6
ByLayer
 62
  256
370
   -1
100
AcDbLine
 10
-15
 20
49
 11
-17
 21
49
  0
LINE
  5
55
100
AcDbEntity
  8
0
  6
ByLayer
 62
  256
370
   -1
100
AcDbLine
 10
-70
 20
75
 11
-75
 21
88
  0
LINE
  5
56
100
AcDbEntity
  8
0
  6
ByLayer
 62
  256
370
   -1
100
AcDbLine
 10
-50
 20
75
 11
-50
 21
74
  0
LINE
  5
57
100
AcDbEntity
  8
0
  6
ByLayer
 62
  256
370
   -1
100
AcDbLine
 10
-50
 20
74
 11
-43
 21
74
  0
LINE
  5
58
100
AcDbEntity
  8
0
  6
ByLayer
 62
  256
370
   -1
100
AcDbLine
 10
-43
 20
74
 11
-43
 21
75
  0
LINE
  5
59
100
AcDbEntity
  8
0
  6
ByLayer
 62
  256
370
   -1
100
AcDbLine
 10
-70
 20
75
 11
-50
 21
75
  0
LINE
  5
5A
100
AcDbEntity
  8
0
  6
ByLayer
 62
  256
370
   -1
100
AcDbLine
 10
-75
 20
75
 11
-76.7
 21
75
  0
LINE
  5
5B
100
AcDbEntity
  8
0
  6
ByLayer
 62
  256
370
   -1
100
AcDbLine
 10
-76.7
 20
65
 11
-76.7
 21
75
  0
LINE
  5
5C
100
AcDbEntity
  8
0
  6
ByLayer
 62
  256
370
   -1
100
AcDbLine
 10
-75
 20
88
 11
-75
 21
75
  0
LINE
  5
5D
100
AcDbEntity
  8
0
  6
ByLayer
 62
  256
370
   -1
100
AcDbLine
 10
-70
 20
65
 11
-75
 21
52
  0
LINE
  5
5E
100
AcDbEntity
  8
0
  6
ByLayer
 62
  256
370
   -1
100
AcDbLine
 10
-50
 20
65
 11
-50
 21
66
  0
LINE
  5
5F
100
AcDbEntity
  8
0
  6
ByLayer
 62
  256
370
   -1
100
AcDbLine
 10
-50
 20
66
 11
-43
 21
66
  0
LINE
  5
60
100
AcDbEntity
  8
0
  6
ByLayer
 62
  256
370
   -1
100
AcDbLine
 10
-43
 20
66
 11
-43
 21
65
  0
LINE
  5
61
100
AcDbEntity
  8
0
  6
ByLayer
 62
  256
370
   -1
100
AcDbLine
 10
-70
 20
65
 11
-50
 21
65
  0
LINE
  5
62
100
AcDbEntity
  8
0
  6
ByLayer
 62
  256
370
   -1
100
AcDbLine
 10
-75
 20
65
 11
-76.7
 21
65
  0
LINE
  5
63
100
AcDbEntity
  8
0
  6
ByLayer
 62
  256
370
   -1
100
AcDbLine
 10
-75
 20
52
 11
-75
 21
65
  0
LINE
  5
64
100
AcDbEntity
  8
0
  6
ByLayer
 62
  256
370
   -1
100
AcDbLine
 10
-43
 20
75
 11
-20.79034272740752
 21
83.88386290903699
  0
LINE
  5
65
100
AcDbEntity
  8
0
  6
ByLayer
 62
  256
370
   -1
100
AcDbLine
 10
-43
 20
65
 11
-20.93003986693863
 21
56.17201594677545
  0
LINE
  5
66
100
AcDbEntity
  8
0
  6
ByLayer
 62
  256
370
   -1
100
AcDbLine
 10
-20.93003986693863
 20
56.17201594677545
 11
-17
 21
49
  0
ARC
  5
67
100
AcDbEntity
  8
0
  6
ByLayer
 62
  256
370
   -1
100
AcDbCircle
 10
0
 20
70
 40
25
100
AcDbArc
 50
103.8865403626289
 51
146.2648635415349
  0
LINE
  5
68
100
AcDbEntity
  8
0
  6
ByLayer
 62
  256
370
   -1
100
AcDbLine
 10
-16.98940846527624
 20
70.60000000000002
 11
-30.99999983038043
 21
70.59999999999991
  0
LINE
  5
69
100
AcDbEntity
  8
0
  6
ByLayer
 62
  256
370
   -1
100
AcDbLine
 10
-17.00000016961953
 20
69.39999886920289
 11
-31.00000016961918
 21
69.40000282699285
  0
LINE
  5
6A
100
AcDbEntity
  8
0
  6
ByLayer
 62
  256
370
   -1
100
AcDbLine
 10
-31.00000016961957
 20
69.39999999999995
 11
-30.99999983038043
 21
70.59999999999991
  0
ARC
  5
6B
100
AcDbEntity
  8
0
  6
ByLayer
 62
  256
370
   -1
100
AcDbCircle
 10
5.176414852314792e-014
 20
70
 40
17
100
AcDbArc
 50
2.022624053066176
 51
69.33268350648741
  0
LINE
  5
6C
100
AcDbEntity
  8
0
  6
ByLayer
 62
  256
370
   -1
100
AcDbLine
 10
17.00000000000004
 20
51.66969722017659
 11
15.00000000000004
 21
51.66969722017659
  0
LINE
  5
6D
100
AcDbEntity
  8
0
  6
ByLayer
 62
  256
370
   -1
100
AcDbLine
 10
17.00000000000004
 20
51.66969722017659
 11
17.00000001148288
 21
52.86999700218168
  0
LINE
  5
6E
100
AcDbEntity
  8
0
  6
ByLayer
 62
  256
370
   -1
100
AcDbLine
 10
17.00000001148288
 20
52.86999700218168
 11
15.00000000000004
 21
52.86969722017659
  0
LINE
  5
6F
100
AcDbEntity
  8
0
  6
ByLayer
 62
  256
370
   -1
100
AcDbLine
 10
17.00000008915836
 20
60.98940184067689
 11
17.00000016961958
 21
69.39999886920286
  0
LINE
  5
70
100
AcDbEntity
  8
0
  6
ByLayer
 62
  256
370
   -1
100
AcDbLine
 10
15.00000000000004
 20
52.86969722017659
 11
17.00000008915836
 21
60.9894018406769
  0
LINE
  5
71
100
AcDbEntity
  8
0
  6
ByLayer
 62
  256
370
   -1
100
AcDbLine
 10
15.00000000000004
 20
51.66969722017659
 11
15.00000000000004
 21
48.99999999999999
  0
LINE
  5
72
100
AcDbEntity
  8
0
  6
ByLayer
 62
  256
370
   -1
100
AcDbLine
 10
15.00000000000004
 20
48.99999999999999
 11
17.00000000000004
 21
48.99999999999999
  0
LINE
  5
73
100
AcDbEntity
  8
0
  6
ByLayer
 62
  256
370
   -1
100
AcDbLine
 10
70.00000000000006
 20
74.99999999999994
 11
75.00000000000007
 21
87.99999999999994
  0
LINE
  5
74
100
AcDbEntity
  8
0
  6
ByLayer
 62
  256
370
   -1
100
AcDbLine
 10
50.00000000000006
 20
74.99999999999994
 11
50.00000000000006
 21
73.99999999999994
  0
LINE
  5
75
100
AcDbEntity
  8
0
  6
ByLayer
 62
  256
370
   -1
100
AcDbLine
 10
50.00000000000006
 20
73.99999999999994
 11
43.00000000000006
 21
73.99999999999994
  0
LINE
  5
76
100
AcDbEntity
  8
0
  6
ByLayer
 62
  256
370
   -1
100
AcDbLine
 10
43.00000000000006
 20
73.99999999999994
 11
43.00000000000006
 21
74.99999999999994
  0
LINE
  5
77
100
AcDbEntity
  8
0
  6
ByLayer
 62
  256
370
   -1
100
AcDbLine
 10
70.00000000000006
 20
74.99999999999994
 11
50.00000000000006
 21
74.99999999999994
  0
LINE
  5
78
100
AcDbEntity
  8
0
  6
ByLayer
 62
  256
370
   -1
100
AcDbLine
 10
75.00000000000006
 20
74.99999999999994
 11
76.70000000000006
 21
74.99999999999994
  0
LINE
  5
79
100
AcDbEntity
  8
0
  6
ByLayer
 62
  256
370
   -1
100
AcDbLine
 10
76.70000000000005
 20
64.99999999999994
 11
76.70000000000006
 21
74.99999999999994
  0
LINE
  5
7A
100
AcDbEntity
  8
0
  6
ByLayer
 62
  256
370
   -1
100
AcDbLine
 10
75.00000000000007
 20
87.99999999999994
 11
75.00000000000006
 21
74.99999999999994
  0
LINE
  5
7B
100
AcDbEntity
  8
0
  6
ByLayer
 62
  256
370
   -1
100
AcDbLine
 10
70.00000000000004
 20
64.99999999999994
 11
75.00000000000004
 21
51.99999999999993
  0
LINE
  5
7C
100
AcDbEntity
  8
0
  6
ByLayer
 62
  256
370
   -1
100
AcDbLine
 10
50.00000000000005
 20
64.99999999999997
 11
50.00000000000005
 21
65.99999999999997
  0
LINE
  5
7D
100
AcDbEntity
  8
0
  6
ByLayer
 62
  256
370
   -1
100
AcDbLine
 10
50.00000000000005
 20
65.99999999999997
 11
43.00000000000005
 21
65.99999999999997
  0
LINE
  5
7E
100
AcDbEntity
  8
0
  6
ByLayer
 62
  256
370
   -1
100
AcDbLine
 10
43.00000000000005
 20
65.99999999999997
 11
43.00000000000005
 21
64.99999999999997
  0
LINE
  5
7F
100
AcDbEntity
  8
0
  6
ByLayer
 62
  256
370
   -1
100
AcDbLine
 10
70.00000000000004
 20
64.99999999999994
 11
50.00000000000005
 21
64.99999999999997
  0
LINE
  5
80
100
AcDbEntity
  8
0
  6
ByLayer
 62
  256
370
   -1
100
AcDbLine
 10
75.00000000000004
 20
64.99999999999994
 11
76.70000000000005
 21
64.99999999999994
  0
LINE
  5
81
100
AcDbEntity
  8
0
  6
ByLayer
 62
  256
370
   -1
100
AcDbLine
 10
75.00000000000004
 20
51.99999999999993
 11
75.00000000000004
 21
64.99999999999994
  0
LINE
  5
82
100
AcDbEntity
  8
0
  6
ByLayer
 62
  256
370
   -1
100
AcDbLine
 10
43.00000000000006
 20
74.99999999999994
 11
20.79034272740758
 21
83.88386290903696
  0
LINE
  5
83
100
AcDbEntity
  8
0
  6
ByLayer
 62
  256
370
   -1
100
AcDbLine
 10
43.00000000000005
 20
64.99999999999997
 11
20.93003986693867
 21
56.17201594677542
  0
LINE
  5
84
100
AcDbEntity
  8
0
  6
ByLayer
 62
  256
370
   -1
100
AcDbLine
 10
20.93003986693867
 20
56.17201594677542
 11
17.00000000000004
 21
48.99999999999999
  0
ARC
  5
85
100
AcDbEntity
  8
0
  6
ByLayer
 62
  256
370
   -1
100
AcDbCircle
 10
5.176414852314792e-014
 20
70
 40
25
100
AcDbArc
 50
33.73513645846514
 51
76.11345963737101
  0
LINE
  5
86
100
AcDbEntity
  8
0
  6
ByLayer
 62
  256
370
   -1
100
AcDbLine
 10
16.98940846527629
 20
70.60000000000002
 11
30.99999983038049
 21
70.59999999999988
  0
LINE
  5
87
100
AcDbEntity
  8
0
  6
ByLayer
 62
  256
370
   -1
100
AcDbLine
 10
17.00000016961958
 20
69.39999886920286
 11
31.00000016961923
 21
69.40000282699282
  0
LINE
  5
88
100
AcDbEntity
  8
0
  6
ByLayer
 62
  256
370
   -1
100
AcDbLine
 10
31.00000016961962
 20
69.39999999999992
 11
30.99999983038049
 21
70.59999999999988
  0
LINE
  5
89
100
AcDbEntity
  8
0
  6
ByLayer
 62
  256
370
   -1
100
AcDbLine
 10
-5.999999999999985
 20
87.65298686029344
 11
-10.00000000000003
 21
87.65298799109057
  0
LINE
  5
8A
100
AcDbEntity
  8
0
  6
ByLayer
 62
  256
370
   -1
100
AcDbLine
 10
-10.00000000000003
 20
87.65298799109057
 11
-9.99999966076089
 21
88.85298799109053
  0
LINE
  5
8B
100
AcDbEntity
  8
0
  6
ByLayer
 62
  256
370
   -1
100
AcDbLine
 10
-5.999999830380459
 20
88.85298799109057
 11
-9.99999966076089
 21
88.85298799109053
  0
LINE
  5
8C
100
AcDbEntity
  8
0
  6
ByLayer
 62
  256
370
   -1
100
AcDbLine
 10
-5.999999999999971
 20
85.90597372058687
 11
-5.999999999999985
 21
87.65298686029344
  0
LINE
  5
8D
100
AcDbEntity
  8
0
  6
ByLayer
 62
  256
370
   -1
100
AcDbLine
 10
-5.999999830380459
 20
88.85298799109057
 11
-5.999999999999956
 21
94.26932219902325
  0
LINE
  5
8E
100
AcDbEntity
  8
0
  6
ByLayer
 62
  256
370
   -1
100
AcDbLine
 10
5.999999999999985
 20
87.65298686029344
 11
10.00000000000003
 21
87.65298799109057
  0
LINE
  5
8F
100
AcDbEntity
  8
0
  6
ByLayer
 62
  256
370
   -1
100
AcDbLine
 10
10.00000000000003
 20
87.65298799109057
 11
9.99999966076089
 21
88.85298799109053
  0
LINE
  5
90
100
AcDbEntity
  8
0
  6
ByLayer
 62
  256
370
   -1
100
AcDbLine
 10
5.999999830380459
 20
88.85298799109057
 11
9.99999966076089
 21
88.85298799109053
  0
LINE
  5
91
100
AcDbEntity
  8
0
  6
ByLayer
 62
  256
370
   -1
100
AcDbLine
 10
5.999999999999971
 20
85.90597372058687
 11
5.999999999999985
 21
87.65298686029344
  0
LINE
  5
92
100
AcDbEntity
  8
0
  6
ByLayer
 62
  256
370
   -1
100
AcDbLine
 10
5.999999830380459
 20
88.85298799109057
 11
5.999999999999956
 21
94.26932219902325
  0
LINE
  5
93
100
AcDbEntity
  8
0
  6
ByLayer
 62
  256
370
   -1
100
AcDbLine
 10
-0.5999999999999659
 20
80.00000016961957
 11
0.5999999999999659
 21
79.99999983038043
  0
ARC
  5
94
100
AcDbEntity
  8
0
  6
ByLayer
 62
  256
370
   -1
100
AcDbCircle
 10
0
 20
70
 40
15
100
AcDbArc
 50
92.29244277595575
 51
110.2075572240443
  0
LINE
  5
95
100
AcDbEntity
  8
0
  6
ByLayer
 62
  256
370
   -1
100
AcDbLine
 10
0.5999999999999659
 20
79.99999983038043
 11
0.5999999999999659
 21
84.98799519615621
  0
LINE
  5
96
100
AcDbEntity
  8
0
  6
ByLayer
 62
  256
370
   -1
100
AcDbLine
 10
-0.5999999999999659
 20
80.00000016961957
 11
-0.5999999999999659
 21
84.98799519615622
  0
LINE
  5
97
100
AcDbEntity
  8
0
  6
ByLayer
 62
  256
370
   -1
100
AcDbLine
 10
-4.381162108068239
 20
79.00918542240187
 11
-3.272506539233561
 21
79.46840522782387
  0
ARC
  5
98
100
AcDbEntity
  8
0
  6
ByLayer
 62
  256
370
   -1
100
AcDbCircle
 10
0
 20
70
 40
15
100
AcDbArc
 50
114.7924427759557
 51
132.7075572240443
  0
LINE
  5
99
100
AcDbEntity
  8
0
  6
ByLayer
 62
  256
370
   -1
100
AcDbLine
 10
-3.272506539233561
 20
79.46840522782387
 11
-5.181329726429794
 21
84.07671205452525
  0
LINE
  5
9A
100
AcDbEntity
  8
0
  6
ByLayer
 62
  256
370
   -1
100
AcDbLine
 10
-4.381162108068239
 20
79.00918542240187
 11
-6.289985165443284
 21
83.61749193568718
  0
LINE
  5
9B
100
AcDbEntity
  8
0
  6
ByLayer
 62
  256
370
   -1
100
AcDbLine
 10
-7.495332000516527
 20
76.64680386309271
 11
-6.646803623214424
 21
77.49533176063824
  0
ARC
  5
9C
100
AcDbEntity
  8
0
  6
ByLayer
 62
  256
370
   -1
100
AcDbCircle
 10
0
 20
70
 40
15
100
AcDbArc
 50
137.2924427759557
 51
155.2075572240443
  0
LINE
  5
9D
100
AcDbEntity
  8
0
  6
ByLayer
 62
  256
370
   -1
100
AcDbLine
 10
-6.646803623214424
 20
77.49533176063824
 11
-10.17384897088155
 21
81.02237710830536
  0
LINE
  5
9E
100
AcDbEntity
  8
0
  6
ByLayer
 62
  256
370
   -1
100
AcDbLine
 10
-7.495332000516527
 20
76.64680386309271
 11
-11.02237710830536
 21
80.17384897088156
  0
LINE
  5
9F
100
AcDbEntity
  8
0
  6
ByLayer
 62
  256
370
   -1
100
AcDbLine
 10
-9.46840554123996
 20
73.27250666905475
 11
-9.009185108985776
 21
74.38116197824704
  0
ARC
  5
A0
100
AcDbEntity
  8
0
  6
ByLayer
 62
  256
370
   -1
100
AcDbCircle
 10
0
 20
70
 40
15
100
AcDbArc
 50
159.7924427759557
 51
177.7075572240443
  0
LINE
  5
A1
100
AcDbEntity
  8
0
  6
ByLayer
 62
  256
370
   -1
100
AcDbLine
 10
-9.009185108985776
 20
74.38116197824704
 11
-13.61749193568717
 21
76.28998516544327
  0
LINE
  5
A2
100
AcDbEntity
  8
0
  6
ByLayer
 62
  256
370
   -1
100
AcDbLine
 10
-9.46840554123996
 20
73.27250666905475
 11
-14.07671205452526
 21
75.18132972642979
  0
LINE
  5
A3
100
AcDbEntity
  8
0
  6
ByLayer
 62
  256
370
   -1
100
AcDbLine
 10
-10.00000016961957
 20
69.40000000000003
 11
-9.999999830380432
 21
70.59999999999997
  0
ARC
  5
A4
100
AcDbEntity
  8
0
  6
ByLayer
 62
  256
370
   -1
100
AcDbCircle
 10
0
 20
70
 40
15
100
AcDbArc
 50
182.2924427759557
 51
200.2075572240443
  0
LINE
  5
A5
100
AcDbEntity
  8
0
  6
ByLayer
 62
  256
370
   -1
100
AcDbLine
 10
-9.999999830380432
 20
70.59999999999997
 11
-14.98799519615621
 21
70.59999999999997
  0
LINE
  5
A6
100
AcDbEntity
  8
0
  6
ByLayer
 62
  256
370
   -1
100
AcDbLine
 10
-10.00000016961957
 20
69.40000000000003
 11
-14.98799519615622
 21
69.40000000000003
  0
LINE
  5
A7
100
AcDbEntity
  8
0
  6
ByLayer
 62
  256
370
   -1
100
AcDbLine
 10
-9.00918542240187
 20
65.61883789193176
 11
-9.468405227823865
 21
66.72749346076644
  0
ARC
  5
A8
100
AcDbEntity
  8
0
  6
ByLayer
 62
  256
370
   -1
100
AcDbCircle
 10
0
 20
70
 40
15
100
AcDbArc
 50
204.7924427759557
 51
222.7075572240443
  0
LINE
  5
A9
100
AcDbEntity
  8
0
  6
ByLayer
 62
  256
370
   -1
100
AcDbLine
 10
-9.468405227823865
 20
66.72749346076644
 11
-14.07671205452525
 21
64.81867027357021
  0
LINE
  5
AA
100
AcDbEntity
  8
0
  6
ByLayer
 62
  256
370
   -1
100
AcDbLine
 10
-9.00918542240187
 20
65.61883789193176
 11
-13.61749193568718
 21
63.71001483455672
  0
LINE
  5
AB
100
AcDbEntity
  8
0
  6
ByLayer
 62
  256
370
   -1
100
AcDbLine
 10
-6.646803863092714
 20
62.50466799948347
 11
-7.495331760638237
 21
63.35319637678558
  0
ARC
  5
AC
100
AcDbEntity
  8
0
  6
ByLayer
 62
  256
370
   -1
100
AcDbCircle
 10
0
 20
70
 40
15
100
AcDbArc
 50
227.2924427759557
 51
245.2075572240443
  0
LINE
  5
AD
100
AcDbEntity
  8
0
  6
ByLayer
 62
  256
370
   -1
100
AcDbLine
 10
-7.495331760638237
 20
63.35319637678558
 11
-11.02237710830536
 21
59.82615102911845
  0
LINE
  5
AE
100
AcDbEntity
  8
0
  6
ByLayer
 62
  256
370
   -1
100
AcDbLine
 10
-6.646803863092714
 20
62.50466799948347
 11
-10.17384897088156
 21
58.97762289169464
  0
LINE
  5
AF
100
AcDbEntity
  8
0
  6
ByLayer
 62
  256
370
   -1
100
AcDbLine
 10
-3.272506669054764
 20
60.53159445876004
 11
-4.381161978247036
 21
60.99081489101422
  0
ARC
  5
B0
100
AcDbEntity
  8
0
  6
ByLayer
 62
  256
370
   -1
100
AcDbCircle
 10
0
 20
70
 40
15
100
AcDbArc
 50
249.7924427759557
 51
267.7075572240443
  0
LINE
  5
B1
100
AcDbEntity
  8
0
  6
ByLayer
 62
  256
370
   -1
100
AcDbLine
 10
-4.381161978247036
 20
60.99081489101422
 11
-6.289985165443269
 21
56.38250806431283
  0
LINE
  5
B2
100
AcDbEntity
  8
0
  6
ByLayer
 62
  256
370
   -1
100
AcDbLine
 10
-3.272506669054764
 20
60.53159445876004
 11
-5.181329726429794
 21
55.92328794547474
  0
LINE
  5
B3
100
AcDbEntity
  8
0
  6
ByLayer
 62
  256
370
   -1
100
AcDbLine
 10
0.5999999999999659
 20
59.99999983038043
 11
-0.5999999999999659
 21
60.00000016961957
  0
ARC
  5
B4
100
AcDbEntity
  8
0
  6
ByLayer
 62
  256
370
   -1
100
AcDbCircle
 10
0
 20
70
 40
15
100
AcDbArc
 50
272.2924427759557
 51
290.2075572240443
  0
LINE
  5
B5
100
AcDbEntity
  8
0
  6
ByLayer
 62
  256
370
   -1
100
AcDbLine
 10
-0.5999999999999659
 20
60.00000016961957
 11
-0.5999999999999659
 21
55.01200480384379
  0
LINE
  5
B6
100
AcDbEntity
  8
0
  6
ByLayer
 62
  256
370
   -1
100
AcDbLine
 10
0.5999999999999659
 20
59.99999983038043
 11
0.5999999999999659
 21
55.01200480384378
  0
LINE
  5
B7
100
AcDbEntity
  8
0
  6
ByLayer
 62
  256
370
   -1
100
AcDbLine
 10
4.381162108068224
 20
60.99081457759813
 11
3.272506539233547
 21
60.53159477217613
  0
ARC
  5
B8
100
AcDbEntity
  8
0
  6
ByLayer
 62
  256
370
   -1
100
AcDbCircle
 10
0
 20
70
 40
15
100
AcDbArc
 50
294.7924427759557
 51
312.7075572240443
  0
LINE
  5
B9
100
AcDbEntity
  8
0
  6
ByLayer
 62
  256
370
   -1
100
AcDbLine
 10
3.272506539233547
 20
60.53159477217613
 11
5.181329726429794
 21
55.92328794547475
  0
LINE
  5
BA
100
AcDbEntity
  8
0
  6
ByLayer
 62
  256
370
   -1
100
AcDbLine
 10
4.381162108068224
 20
60.99081457759813
 11
6.289985165443284
 21
56.38250806431282
  0
LINE
  5
BB
100
AcDbEntity
  8
0
  6
ByLayer
 62
  256
370
   -1
100
AcDbLine
 10
7.495332000516527
 20
63.35319613690729
 11
6.646803623214424
 21
62.50466823936176
  0
ARC
  5
BC
100
AcDbEntity
  8
0
  6
ByLayer
 62
  256
370
   -1
100
AcDbCircle
 10
0
 20
70
 40
15
100
AcDbArc
 50
317.2924427759557
 51
335.2075572240443
  0
LINE
  5
BD
100
AcDbEntity
  8
0
  6
ByLayer
 62
  256
370
   -1
100
AcDbLine
 10
6.646803623214424
 20
62.50466823936176
 11
10.17384897088155
 21
58.97762289169464
  0
LINE
  5
BE
100
AcDbEntity
  8
0
  6
ByLayer
 62
  256
370
   -1
100
AcDbLine
 10
7.495332000516527
 20
63.35319613690729
 11
11.02237710830536
 21
59.82615102911844
  0
LINE
  5
BF
100
AcDbEntity
  8
0
  6
ByLayer
 62
  256
370
   -1
100
AcDbLine
 10
9.468405541239946
 20
66.72749333094524
 11
9.009185108985776
 21
65.61883802175295
  0
ARC
  5
C0
100
AcDbEntity
  8
0
  6
ByLayer
 62
  256
370
   -1
100
AcDbCircle
 10
0
 20
70
 40
15
100
AcDbArc
 50
339.7924427759557
 51
357.7075572240443
  0
LINE
  5
C1
100
AcDbEntity
  8
0
  6
ByLayer
 62
  256
370
   -1
100
AcDbLine
 10
9.009185108985776
 20
65.61883802175295
 11
13.61749193568716
 21
63.71001483455672
  0
LINE
  5
C2
100
AcDbEntity
  8
0
  6
ByLayer
 62
  256
370
   -1
100
AcDbLine
 10
9.468405541239946
 20
66.72749333094524
 11
14.07671205452525
 21
64.81867027357019
  0
LINE
  5
C3
100
AcDbEntity
  8
0
  6
ByLayer
 62
  256
370
   -1
100
AcDbLine
 10
10.00000016961957
 20
70.59999999999997
 11
9.999999830380432
 21
69.40000000000003
  0
ARC
  5
C4
100
AcDbEntity
  8
0
  6
ByLayer
 62
  256
370
   -1
100
AcDbCircle
 10
0
 20
70
 40
15
100
AcDbArc
 50
2.29244277595575
 51
20.20755722404428
  0
LINE
  5
C5
100
AcDbEntity
  8
0
  6
ByLayer
 62
  256
370
   -1
100
AcDbLine
 10
9.999999830380432
 20
69.40000000000003
 11
14.98799519615619
 21
69.40000000000003
  0
LINE
  5
C6
100
AcDbEntity
  8
0
  6
ByLayer
 62
  256
370
   -1
100
AcDbLine
 10
10.00000016961957
 20
70.59999999999997
 11
14.98799519615622
 21
70.59999999999997
  0
LINE
  5
C7
100
AcDbEntity
  8
0
  6
ByLayer
 62
  256
370
   -1
100
AcDbLine
 10
9.009185422401885
 20
74.38116210806824
 11
9.468405227823865
 21
73.27250653923356
  0
ARC
  5
C8
100
AcDbEntity
  8
0
  6
ByLayer
 62
  256
370
   -1
100
AcDbCircle
 10
0
 20
70
 40
15
100
AcDbArc
 50
24.79244277595577
 51
42.7075572240443
  0
LINE
  5
C9
100
AcDbEntity
  8
0
  6
ByLayer
 62
  256
370
   -1
100
AcDbLine
 10
9.468405227823865
 20
73.27250653923356
 11
14.07671205452525
 21
75.18132972642979
  0
LINE
  5
CA
100
AcDbEntity
  8
0
  6
ByLayer
 62
  256
370
   -1
100
AcDbLine
 10
9.009185422401885
 20
74.38116210806824
 11
13.61749193568718
 21
76.28998516544328
  0
LINE
  5
CB
100
AcDbEntity
  8
0
  6
ByLayer
 62
  256
370
   -1
100
AcDbLine
 10
6.646803863092714
 20
77.49533200051653
 11
7.495331760638237
 21
76.64680362321442
  0
ARC
  5
CC
100
AcDbEntity
  8
0
  6
ByLayer
 62
  256
370
   -1
100
AcDbCircle
 10
0
 20
70
 40
15
100
AcDbArc
 50
47.29244277595575
 51
65.20755722404428
  0
LINE
  5
CD
100
AcDbEntity
  8
0
  6
ByLayer
 62
  256
370
   -1
100
AcDbLine
 10
7.495331760638237
 20
76.64680362321442
 11
11.02237710830536
 21
80.17384897088155
  0
LINE
  5
CE
100
AcDbEntity
  8
0
  6
ByLayer
 62
  256
370
   -1
100
AcDbLine
 10
6.646803863092714
 20
77.49533200051653
 11
10.17384897088155
 21
81.02237710830536
  0
LINE
  5
CF
100
AcDbEntity
  8
0
  6
ByLayer
 62
  256
370
   -1
100
AcDbLine
 10
3.272506669054764
 20
79.46840554123996
 11
4.381161978247036
 21
79.00918510898578
  0
ARC
  5
D0
100
AcDbEntity
  8
0
  6
ByLayer
 62
  256
370
   -1
100
AcDbCircle
 10
0
 20
70
 40
15
100
AcDbArc
 50
69.79244277595572
 51
87.70755722404425
  0
LINE
  5
D1
100
AcDbEntity
  8
0
  6
ByLayer
 62
  256
370
   -1
100
AcDbLine
 10
4.381161978247036
 20
79.00918510898578
 11
6.289985165443284
 21
83.61749193568716
  0
LINE
  5
D2
100
AcDbEntity
  8
0
  6
ByLayer
 62
  256
370
   -1
100
AcDbLine
 10
3.272506669054764
 20
79.46840554123996
 11
5.181329726429794
 21
84.07671205452526
  0
LINE
  5
D3
100
AcDbEntity
  8
0
  6
ByLayer
 62
  256
370
   -1
100
AcDbLine
 10
82.50969899997983
 20
165.2701305528068
 11
42.50969899997985
 21
234.552162855562
  0
LINE
  5
D4
100
AcDbEntity
  8
0
  6
ByLayer
 62
  256
370
   -1
100
AcDbLine
 10
42.50969899997985
 20
234.552162855562
 11
-37.49030100002015
 21
234.552162855562
  0
LINE
  5
D5
100
AcDbEntity
  8
0
  6
ByLayer
 62
  256
370
   -1
100
AcDbLine
 10
-37.49030100002015
 20
234.552162855562
 11
-77.49030100002017
 21
165.2701305528068
  0
LINE
  5
D6
100
AcDbEntity
  8
0
  6
ByLayer
 62
  256
370
   -1
100
AcDbLine
 10
-77.49030100002017
 20
165.2701305528068
 11
-37.4903010000202
 21
95.98809825005172
  0
LINE
  5
D7
100
AcDbEntity
  8
0
  6
ByLayer
 62
  256
370
   -1
100
AcDbLine
 10
-37.4903010000202
 20
95.98809825005172
 11
42.50969899997978
 21
95.98809825005172
  0
LINE
  5
D8
100
AcDbEntity
  8
0
  6
ByLayer
 62
  256
370
   -1
100
AcDbLine
 10
42.50969899997978
 20
95.98809825005172
 11
82.50969899997983
 21
165.2701305528068
  0
LINE
  5
D9
100
AcDbEntity
  8
0
  6
ByLayer
 62
  256
370
   -1
100
AcDbLine
 10
1.909698999979839
 20
160.4201305528068
 11
3.10969899997984
 21
160.4201305528068
  0
LINE
  5
DA
100
AcDbEntity
  8
0
  6
ByLayer
 62
  256
370
   -1
100
AcDbLine
 10
1.909698999979839
 20
160.4201305528068
 11
1.909698999979839
 21
164.6701305528068
  0
LINE
  5
DB
100
AcDbEntity
  8
0
  6
ByLayer
 62
  256
370
   -1
100
AcDbLine
 10
1.909698999979839
 20
164.6701305528068
 11
-2.340301000020155
 21
164.6701305528068
  0
LINE
  5
DC
100
AcDbEntity
  8
0
  6
ByLayer
 62
  256
370
   -1
100
AcDbLine
 10
7.359698999979834
 20
164.6701305528068
 11
7.359698999979834
 21
165.8701305528068
  0
LINE
  5
DD
100
AcDbEntity
  8
0
  6
ByLayer
 62
  256
370
   -1
100
AcDbLine
 10
7.359698999979834
 20
164.6701305528068
 11
3.109698999979834
 21
164.6701305528068
  0
LINE
  5
DE
100
AcDbEntity
  8
0
  6
ByLayer
 62
  256
370
   -1
100
AcDbLine
 10
3.109698999979834
 20
164.6701305528068
 11
3.109698999979833
 21
160.4201305528068
  0
LINE
  5
DF
100
AcDbEntity
  8
0
  6
ByLayer
 62
  256
370
   -1
100
AcDbLine
 10
3.10969899997984
 20
170.1201305528068
 11
1.90969899997984
 21
170.1201305528068
  0
LINE
  5
E0
100
AcDbEntity
  8
0
  6
ByLayer
 62
  256
370
   -1
100
AcDbLine
 10
3.10969899997984
 20
170.1201305528068
 11
3.10969899997984
 21
165.8701305528068
  0
LINE
  5
E1
100
AcDbEntity
  8
0
  6
ByLayer
 62
  256
370
   -1
100
AcDbLine
 10
3.10969899997984
 20
165.8701305528068
 11
7.359698999979834
 21
165.8701305528068
  0
LINE
  5
E2
100
AcDbEntity
  8
0
  6
ByLayer
 62
  256
370
   -1
100
AcDbLine
 10
-2.340301000020155
 20
165.8701305528068
 11
-2.340301000020155
 21
164.6701305528068
  0
LINE
  5
E3
100
AcDbEntity
  8
0
  6
ByLayer
 62
  256
370
   -1
100
AcDbLine
 10
-2.340301000020155
 20
165.8701305528068
 11
1.909698999979845
 21
165.8701305528068
  0
LINE
  5
E4
100
AcDbEntity
  8
0
  6
ByLayer
 62
  256
370
   -1
100
AcDbLine
 10
1.909698999979845
 20
165.8701305528068
 11
1.909698999979846
 21
170.1201305528068
  0
LINE
  5
E5
100
AcDbEntity
  8
0
  6
ByLayer
 62
  256
370
   -1
100
AcDbLine
 10
7.705851422686459
 20
150.2701305528068
 11
35.58149576970428
 21
101.9880982500517
  0
LINE
  5
E6
100
AcDbEntity
  8
0
  6
ByLayer
 62
  256
370
   -1
100
AcDbLine
 10
-30.56209776974467
 20
101.9880982500518
 11
35.58149576970428
 21
101.9880982500517
  0
LINE
  5
E7
100
AcDbEntity
  8
0
  6
ByLayer
 62
  256
370
   -1
100
AcDbLine
 10
-2.686453422726792
 20
150.2701305528068
 11
-30.56209776974467
 21
101.9880982500518
  0
LINE
  5
E8
100
AcDbEntity
  8
0
  6
ByLayer
 62
  256
370
   -1
100
AcDbLine
 10
-2.686453422726792
 20
150.2701305528068
 11
7.705851422686465
 21
150.2701305528068
  0
LINE
  5
E9
100
AcDbEntity
  8
0
  6
ByLayer
 62
  256
370
   -1
100
AcDbLine
 10
18.09815626809973
 20
162.2701305528068
 11
73.84944496213544
 21
162.2701305528067
  0
LINE
  5
EA
100
AcDbEntity
  8
0
  6
ByLayer
 62
  256
370
   -1
100
AcDbLine
 10
40.77764819241089
 20
104.9880982500517
 11
73.84944496213544
 21
162.2701305528067
  0
LINE
  5
EB
100
AcDbEntity
  8
0
  6
ByLayer
 62
  256
370
   -1
100
AcDbLine
 10
12.9020038453931
 20
153.2701305528068
 11
40.77764819241089
 21
104.9880982500517
  0
LINE
  5
EC
100
AcDbEntity
  8
0
  6
ByLayer
 62
  256
370
   -1
100
AcDbLine
 10
12.9020038453931
 20
153.2701305528068
 11
18.09815626809973
 21
162.2701305528068
  0
LINE
  5
ED
100
AcDbEntity
  8
0
  6
ByLayer
 62
  256
370
   -1
100
AcDbLine
 10
12.90200384539311
 20
177.2701305528068
 11
40.77764819241101
 21
225.552162855562
  0
LINE
  5
EE
100
AcDbEntity
  8
0
  6
ByLayer
 62
  256
370
   -1
100
AcDbLine
 10
73.84944496213541
 20
168.2701305528067
 11
40.77764819241101
 21
225.552162855562
  0
LINE
  5
EF
100
AcDbEntity
  8
0
  6
ByLayer
 62
  256
370
   -1
100
AcDbLine
 10
18.09815626809974
 20
168.2701305528068
 11
73.84944496213541
 21
168.2701305528067
  0
LINE
  5
F0
100
AcDbEntity
  8
0
  6
ByLayer
 62
  256
370
   -1
100
AcDbLine
 10
18.09815626809974
 20
168.2701305528068
 11
12.90200384539311
 21
177.2701305528068
  0
LINE
  5
F1
100
AcDbEntity
  8
0
  6
ByLayer
 62
  256
370
   -1
100
AcDbLine
 10
-2.686453422726778
 20
180.2701305528068
 11
-30.5620977697446
 21
228.552162855562
  0
LINE
  5
F2
100
AcDbEntity
  8
0
  6
ByLayer
 62
  256
370
   -1
100
AcDbLine
 10
35.58149576970435
 20
228.5521628555618
 11
-30.5620977697446
 21
228.552162855562
  0
LINE
  5
F3
100
AcDbEntity
  8
0
  6
ByLayer
 62
  256
370
   -1
100
AcDbLine
 10
7.705851422686473
 20
180.2701305528068
 11
35.58149576970435
 21
228.5521628555618
  0
LINE
  5
F4
100
AcDbEntity
  8
0
  6
ByLayer
 62
  256
370
   -1
100
AcDbLine
 10
7.705851422686473
 20
180.2701305528068
 11
-2.686453422726784
 21
180.2701305528068
  0
LINE
  5
F5
100
AcDbEntity
  8
0
  6
ByLayer
 62
  256
370
   -1
100
AcDbLine
 10
-13.07875826814005
 20
168.2701305528068
 11
-68.83004696217577
 21
168.270130552807
  0
LINE
  5
F6
100
AcDbEntity
  8
0
  6
ByLayer
 62
  256
370
   -1
100
AcDbLine
 10
-35.75825019245119
 20
225.552162855562
 11
-68.83004696217577
 21
168.270130552807
  0
LINE
  5
F7
100
AcDbEntity
  8
0
  6
ByLayer
 62
  256
370
   -1
100
AcDbLine
 10
-7.882605845433421
 20
177.2701305528068
 11
-35.75825019245119
 21
225.552162855562
  0
LINE
  5
F8
100
AcDbEntity
  8
0
  6
ByLayer
 62
  256
370
   -1
100
AcDbLine
 10
-7.882605845433421
 20
177.2701305528068
 11
-13.07875826814005
 21
168.2701305528068
  0
LINE
  5
F9
100
AcDbEntity
  8
0
  6
ByLayer
 62
  256
370
   -1
100
AcDbLine
 10
-7.88260584543344
 20
153.2701305528068
 11
-35.75825019245137
 21
104.9880982500518
  0
LINE
  5
FA
100
AcDbEntity
  8
0
  6
ByLayer
 62
  256
370
   -1
100
AcDbLine
 10
-68.83004696217574
 20
162.270130552807
 11
-35.75825019245137
 21
104.9880982500518
  0
LINE
  5
FB
100
AcDbEntity
  8
0
  6
ByLayer
 62
  256
370
   -1
100
AcDbLine
 10
-13.07875826814006
 20
162.2701305528068
 11
-68.83004696217574
 21
162.270130552807
  0
LINE
  5
FC
100
AcDbEntity
  8
0
  6
ByLayer
 62
  256
370
   -1
100
AcDbLine
 10
-13.07875826814006
 20
162.2701305528068
 11
-7.88260584543344
 21
153.2701305528068
  0
ARC
  5
FD
100
AcDbEntity
  8
0
  6
ByLayer
 62
  256
370
   -1
100
AcDbCircle
 10
1.783142163439763
 20
106.6492051470624
 40
25
100
AcDbArc
 50
13.88654036262894
 51
137.1563569564037
  0
LINE
  5
FE
100
AcDbEntity
  8
0
  6
ByLayer
 62
  256
370
   -1
100
AcDbLine
 10
1.183141032642653
 20
123.6492053166819
 11
1.183142163439783
 21
127.6492053166819
  0
LINE
  5
FF
100
AcDbEntity
  8
0
  6
ByLayer
 62
  256
370
   -1
100
AcDbLine
 10
1.183142163439783
 20
127.6492053166819
 11
2.383142163439757
 21
127.6492049774428
  0
LINE
  5
100
100
AcDbEntity
  8
0
  6
ByLayer
 62
  256
370
   -1
100
AcDbLine
 10
-16.54716061638364
 20
123.6492051470624
 11
1.183141032642653
 21
123.6492053166819
  0
ARC
  5
101
100
AcDbEntity
  8
0
  6
ByLayer
 62
  256
370
   -1
100
AcDbCircle
 10
1.783142163439763
 20
106.6492051470624
 40
17
100
AcDbArc
 50
20.66731649351252
 51
87.9773759469338
  0
LINE
  5
102
100
AcDbEntity
  8
0
  6
ByLayer
 62
  256
370
   -1
100
AcDbLine
 10
2.383142163439757
 20
123.6386136123386
 11
2.383142163439757
 21
127.6492049774428
  0
LINE
  5
103
100
AcDbEntity
  8
0
  6
ByLayer
 62
  256
370
   -1
100
AcDbLine
 10
19.43612902373316
 20
112.6492051470623
 11
19.43613015453036
 21
116.6492051470624
  0
LINE
  5
104
100
AcDbEntity
  8
0
  6
ByLayer
 62
  256
370
   -1
100
AcDbLine
 10
19.43613015453036
 20
116.6492051470624
 11
20.63613015453026
 21
116.6492048078233
  0
LINE
  5
105
100
AcDbEntity
  8
0
  6
ByLayer
 62
  256
370
   -1
100
AcDbLine
 10
20.63613015453036
 20
112.6492049774428
 11
20.63613015453026
 21
116.6492048078233
  0
LINE
  5
106
100
AcDbEntity
  8
0
  6
ByLayer
 62
  256
370
   -1
100
AcDbLine
 10
17.68911588402666
 20
112.6492051470623
 11
19.43612902373316
 21
112.6492051470623
  0
LINE
  5
107
100
AcDbEntity
  8
0
  6
ByLayer
 62
  256
370
   -1
100
AcDbLine
 10
20.63613015453036
 20
112.6492049774428
 11
26.05246436246307
 21
112.6492051470623
  0
ARC
  5
108
100
AcDbEntity
  8
0
  6
ByLayer
 62
  256
370
   -1
100
AcDbCircle
 10
52.91363117643708
 20
135.3304511721976
 40
25
100
AcDbArc
 50
73.88654036262893
 51
197.1563569564037
  0
LINE
  5
109
100
AcDbEntity
  8
0
  6
ByLayer
 62
  256
370
   -1
100
AcDbLine
 10
37.89119859980823
 20
143.3108350354377
 11
34.42709755006902
 21
145.3108360147367
  0
LINE
  5
10A
100
AcDbEntity
  8
0
  6
ByLayer
 62
  256
370
   -1
100
AcDbLine
 10
34.42709755006902
 20
145.3108360147367
 11
35.02709784385872
 21
146.3500663296585
  0
LINE
  5
10B
100
AcDbEntity
  8
0
  6
ByLayer
 62
  256
370
   -1
100
AcDbLine
 10
29.02604792218992
 20
127.95594330581
 11
37.89119859980823
 21
143.3108350354377
  0
ARC
  5
10C
100
AcDbEntity
  8
0
  6
ByLayer
 62
  256
370
   -1
100
AcDbCircle
 10
52.91363117643708
 20
135.3304511721976
 40
17
100
AcDbArc
 50
80.66731649351252
 51
147.9773759469338
  0
LINE
  5
10D
100
AcDbEntity
  8
0
  6
ByLayer
 62
  256
370
   -1
100
AcDbLine
 10
38.50037185023747
 20
144.3447706471064
 11
35.02709784385872
 21
146.3500663296585
  0
LINE
  5
10E
100
AcDbEntity
  8
0
  6
ByLayer
 62
  256
370
   -1
100
AcDbLine
 10
56.54397218387717
 20
153.6183862458846
 11
53.07987113413797
 21
155.6183872251837
  0
LINE
  5
10F
100
AcDbEntity
  8
0
  6
ByLayer
 62
  256
370
   -1
100
AcDbLine
 10
53.07987113413797
 20
155.6183872251837
 11
53.67987142792763
 21
156.6576175401054
  0
LINE
  5
110
100
AcDbEntity
  8
0
  6
ByLayer
 62
  256
370
   -1
100
AcDbLine
 10
57.14397289617057
 20
154.6576176249154
 11
53.67987142792763
 21
156.6576175401054
  0
LINE
  5
111
100
AcDbEntity
  8
0
  6
ByLayer
 62
  256
370
   -1
100
AcDbLine
 10
55.67046561402392
 20
152.1054284861535
 11
56.54397218387717
 21
153.6183862458846
  0
LINE
  5
112
100
AcDbEntity
  8
0
  6
ByLayer
 62
  256
370
   -1
100
AcDbLine
 10
57.14397289617057
 20
154.6576176249154
 11
59.85213985324212
 21
159.3483007291815
  0
ARC
  5
113
100
AcDbEntity
  8
0
  6
ByLayer
 62
  256
370
   -1
100
AcDbCircle
 10
53.64018801297716
 20
193.951376577942
 40
25
100
AcDbArc
 50
133.8865403626289
 51
257.1563569564037
  0
LINE
  5
114
100
AcDbEntity
  8
0
  6
ByLayer
 62
  256
370
   -1
100
AcDbLine
 10
39.21775656714543
 20
184.9317602715626
 11
35.75365438660908
 21
182.9317612508617
  0
LINE
  5
115
100
AcDbEntity
  8
0
  6
ByLayer
 62
  256
370
   -1
100
AcDbLine
 10
35.75365438660908
 20
182.9317612508617
 11
35.1536546803988
 21
183.9709919050225
  0
LINE
  5
116
100
AcDbEntity
  8
0
  6
ByLayer
 62
  256
370
   -1
100
AcDbLine
 10
48.0829075385534
 20
169.5768687115545
 11
39.21775656714543
 21
184.9317602715626
  0
ARC
  5
117
100
AcDbEntity
  8
0
  6
ByLayer
 62
  256
370
   -1
100
AcDbCircle
 10
53.64018801297716
 20
193.951376577942
 40
17
100
AcDbArc
 50
140.6673164935125
 51
207.9773759469338
  0
LINE
  5
118
100
AcDbEntity
  8
0
  6
ByLayer
 62
  256
370
   -1
100
AcDbLine
 10
38.62692868677755
 20
185.9762875875746
 11
35.1536546803988
 21
183.9709919050225
  0
LINE
  5
119
100
AcDbEntity
  8
0
  6
ByLayer
 62
  256
370
   -1
100
AcDbLine
 10
39.61754216012385
 20
206.239311651629
 11
36.15343997958745
 21
204.2393126309281
  0
LINE
  5
11A
100
AcDbEntity
  8
0
  6
ByLayer
 62
  256
370
   -1
100
AcDbLine
 10
36.15343997958745
 20
204.2393126309281
 11
35.55344027337721
 21
205.2785432850889
  0
LINE
  5
11B
100
AcDbEntity
  8
0
  6
ByLayer
 62
  256
370
   -1
100
AcDbLine
 10
39.01754174162006
 20
207.2785432002792
 11
35.55344027337721
 21
205.2785432850889
  0
LINE
  5
11C
100
AcDbEntity
  8
0
  6
ByLayer
 62
  256
370
   -1
100
AcDbLine
 10
40.4910487299771
 20
204.726353891898
 11
39.61754216012385
 21
206.239311651629
  0
LINE
  5
11D
100
AcDbEntity
  8
0
  6
ByLayer
 62
  256
370
   -1
100
AcDbLine
 10
39.01754174162006
 20
207.2785432002792
 11
36.30937449075891
 21
211.9692261349259
  0
ARC
  5
11E
100
AcDbEntity
  8
0
  6
ByLayer
 62
  256
370
   -1
100
AcDbCircle
 10
3.236255836519923
 20
223.8910559585512
 40
25
100
AcDbArc
 50
193.8865403626289
 51
317.1563569564037
  0
LINE
  5
11F
100
AcDbEntity
  8
0
  6
ByLayer
 62
  256
370
   -1
100
AcDbLine
 10
3.836256967317032
 20
206.8910557889317
 11
3.836255836519902
 21
202.8910557889317
  0
LINE
  5
120
100
AcDbEntity
  8
0
  6
ByLayer
 62
  256
370
   -1
100
AcDbLine
 10
3.836255836519902
 20
202.8910557889317
 11
2.636255836519926
 21
202.8910561281708
  0
LINE
  5
121
100
AcDbEntity
  8
0
  6
ByLayer
 62
  256
370
   -1
100
AcDbLine
 10
21.56655861634332
 20
206.8910559585512
 11
3.836256967317032
 21
206.8910557889317
  0
ARC
  5
122
100
AcDbEntity
  8
0
  6
ByLayer
 62
  256
370
   -1
100
AcDbCircle
 10
3.236255836519923
 20
223.8910559585512
 40
17
100
AcDbArc
 50
200.6673164935125
 51
267.9773759469338
  0
LINE
  5
123
100
AcDbEntity
  8
0
  6
ByLayer
 62
  256
370
   -1
100
AcDbLine
 10
2.636255836519927
 20
206.901647493275
 11
2.636255836519926
 21
202.8910561281708
  0
LINE
  5
124
100
AcDbEntity
  8
0
  6
ByLayer
 62
  256
370
   -1
100
AcDbLine
 10
-14.41673102377347
 20
217.8910559585513
 11
-14.41673215457067
 21
213.8910559585512
  0
LINE
  5
125
100
AcDbEntity
  8
0
  6
ByLayer
 62
  256
370
   -1
100
AcDbLine
 10
-14.41673215457067
 20
213.8910559585512
 11
-15.61673215457058
 21
213.8910562977903
  0
LINE
  5
126
100
AcDbEntity
  8
0
  6
ByLayer
 62
  256
370
   -1
100
AcDbLine
 10
-15.61673215457068
 20
217.8910561281708
 11
-15.61673215457058
 21
213.8910562977903
  0
LINE
  5
127
100
AcDbEntity
  8
0
  6
ByLayer
 62
  256
370
   -1
100
AcDbLine
 10
-12.66971788406698
 20
217.8910559585513
 11
-14.41673102377347
 21
217.8910559585513
  0
LINE
  5
128
100
AcDbEntity
  8
0
  6
ByLayer
 62
  256
370
   -1
100
AcDbLine
 10
-15.61673215457068
 20
217.8910561281708
 11
-21.03306636250338
 21
217.8910559585513
  0
ARC
  5
129
100
AcDbEntity
  8
0
  6
ByLayer
 62
  256
370
   -1
100
AcDbCircle
 10
-47.89423317647739
 20
195.209809933416
 40
25
100
AcDbArc
 50
253.8865403626289
 51
17.15635695640368
  0
LINE
  5
12A
100
AcDbEntity
  8
0
  6
ByLayer
 62
  256
370
   -1
100
AcDbLine
 10
-32.87180059984855
 20
187.2294260701759
 11
-29.40769955010933
 21
185.2294250908769
  0
LINE
  5
12B
100
AcDbEntity
  8
0
  6
ByLayer
 62
  256
370
   -1
100
AcDbLine
 10
-29.40769955010933
 20
185.2294250908769
 11
-30.00769984389903
 21
184.1901947759551
  0
LINE
  5
12C
100
AcDbEntity
  8
0
  6
ByLayer
 62
  256
370
   -1
100
AcDbLine
 10
-24.00664992223022
 20
202.5843177998036
 11
-32.87180059984855
 21
187.2294260701759
  0
ARC
  5
12D
100
AcDbEntity
  8
0
  6
ByLayer
 62
  256
370
   -1
100
AcDbCircle
 10
-47.89423317647739
 20
195.209809933416
 40
17
100
AcDbArc
 50
260.6673164935125
 51
327.9773759469338
  0
LINE
  5
12E
100
AcDbEntity
  8
0
  6
ByLayer
 62
  256
370
   -1
100
AcDbLine
 10
-33.48097385027778
 20
186.1954904585072
 11
-30.00769984389903
 21
184.1901947759551
  0
LINE
  5
12F
100
AcDbEntity
  8
0
  6
ByLayer
 62
  256
370
   -1
100
AcDbLine
 10
-51.52457418391749
 20
176.921874859729
 11
-48.06047313417828
 21
174.9218738804299
  0
LINE
  5
130
100
AcDbEntity
  8
0
  6
ByLayer
 62
  256
370
   -1
100
AcDbLine
 10
-48.06047313417828
 20
174.9218738804299
 11
-48.66047342796794
 21
173.8826435655083
  0
LINE
  5
131
100
AcDbEntity
  8
0
  6
ByLayer
 62
  256
370
   -1
100
AcDbLine
 10
-52.12457489621089
 20
175.8826434806984
 11
-48.66047342796794
 21
173.8826435655083
  0
LINE
  5
132
100
AcDbEntity
  8
0
  6
ByLayer
 62
  256
370
   -1
100
AcDbLine
 10
-50.65106761406423
 20
178.4348326194601
 11
-51.52457418391749
 21
176.921874859729
  0
LINE
  5
133
100
AcDbEntity
  8
0
  6
ByLayer
 62
  256
370
   -1
100
AcDbLine
 10
-52.12457489621089
 20
175.8826434806984
 11
-54.83274185328244
 21
171.1919603764322
  0
ARC
  5
134
100
AcDbEntity
  8
0
  6
ByLayer
 62
  256
370
   -1
100
AcDbCircle
 10
-48.6207900130175
 20
136.5888845276716
 40
25
100
AcDbArc
 50
313.8865403626289
 51
77.15635695640366
  0
LINE
  5
135
100
AcDbEntity
  8
0
  6
ByLayer
 62
  256
370
   -1
100
AcDbLine
 10
-34.19835856718576
 20
145.608500834051
 11
-30.73425638664941
 21
147.608499854752
  0
LINE
  5
136
100
AcDbEntity
  8
0
  6
ByLayer
 62
  256
370
   -1
100
AcDbLine
 10
-30.73425638664941
 20
147.608499854752
 11
-30.13425668043914
 21
146.5692692005911
  0
LINE
  5
137
100
AcDbEntity
  8
0
  6
ByLayer
 62
  256
370
   -1
100
AcDbLine
 10
-43.06350953859372
 20
160.9633923940592
 11
-34.19835856718576
 21
145.608500834051
  0
ARC
  5
138
100
AcDbEntity
  8
0
  6
ByLayer
 62
  256
370
   -1
100
AcDbCircle
 10
-48.6207900130175
 20
136.5888845276716
 40
17
100
AcDbArc
 50
320.6673164935125
 51
27.97737594693379
  0
LINE
  5
139
100
AcDbEntity
  8
0
  6
ByLayer
 62
  256
370
   -1
100
AcDbLine
 10
-33.60753068681789
 20
144.563973518039
 11
-30.13425668043914
 21
146.5692692005911
  0
LINE
  5
13A
100
AcDbEntity
  8
0
  6
ByLayer
 62
  256
370
   -1
100
AcDbLine
 10
-34.5981441601642
 20
124.3009494539846
 11
-31.1340419796278
 21
126.3009484746855
  0
LINE
  5
13B
100
AcDbEntity
  8
0
  6
ByLayer
 62
  256
370
   -1
100
AcDbLine
 10
-31.1340419796278
 20
126.3009484746855
 11
-30.53404227341755
 21
125.2617178205247
  0
LINE
  5
13C
100
AcDbEntity
  8
0
  6
ByLayer
 62
  256
370
   -1
100
AcDbLine
 10
-33.99814374166041
 20
123.2617179053344
 11
-30.53404227341755
 21
125.2617178205247
  0
LINE
  5
13D
100
AcDbEntity
  8
0
  6
ByLayer
 62
  256
370
   -1
100
AcDbLine
 10
-35.47165073001745
 20
125.8139072137156
 11
-34.5981441601642
 21
124.3009494539846
  0
LINE
  5
13E
100
AcDbEntity
  8
0
  6
ByLayer
 62
  256
370
   -1
100
AcDbLine
 10
-33.99814374166041
 20
123.2617179053344
 11
-31.28997649079925
 21
118.5710349706878
  0
ARC
  5
13F
100
AcDbEntity
  8
0
  6
ByLayer
 62
  256
370
   -1
100
AcDbCircle
 10
7.779021199003147
 20
128.2701305528068
 40
25
100
AcDbArc
 50
193.8865403626289
 51
317.1563569564037
  0
LINE
  5
140
100
AcDbEntity
  8
0
  6
ByLayer
 62
  256
370
   -1
100
AcDbLine
 10
8.379022329800257
 20
111.2701303831872
 11
8.379021199003127
 21
107.2701303831872
  0
LINE
  5
141
100
AcDbEntity
  8
0
  6
ByLayer
 62
  256
370
   -1
100
AcDbLine
 10
8.379021199003127
 20
107.2701303831872
 11
7.179021199003152
 21
107.2701307224263
  0
LINE
  5
142
100
AcDbEntity
  8
0
  6
ByLayer
 62
  256
370
   -1
100
AcDbLine
 10
26.10932397882655
 20
111.2701305528068
 11
8.379022329800257
 21
111.2701303831872
  0
ARC
  5
143
100
AcDbEntity
  8
0
  6
ByLayer
 62
  256
370
   -1
100
AcDbCircle
 10
7.779021199003147
 20
128.2701305528068
 40
17
100
AcDbArc
 50
200.6673164935125
 51
267.9773759469338
  0
LINE
  5
144
100
AcDbEntity
  8
0
  6
ByLayer
 62
  256
370
   -1
100
AcDbLine
 10
7.179021199003152
 20
111.2807220875305
 11
7.179021199003152
 21
107.2701307224263
  0
LINE
  5
145
100
AcDbEntity
  8
0
  6
ByLayer
 62
  256
370
   -1
100
AcDbLine
 10
-9.873965661290251
 20
122.2701305528068
 11
-9.873966792087451
 21
118.2701305528067
  0
LINE
  5
146
100
AcDbEntity
  8
0
  6
ByLayer
 62
  256
370
   -1
100
AcDbLine
 10
-9.873966792087451
 20
118.2701305528067
 11
-11.07396679208735
 21
118.2701308920459
  0
LINE
  5
147
100
AcDbEntity
  8
0
  6
ByLayer
 62
  256
370
   -1
100
AcDbLine
 10
-11.07396679208745
 20
122.2701307224263
 11
-11.07396679208735
 21
118.2701308920459
  0
LINE
  5
148
100
AcDbEntity
  8
0
  6
ByLayer
 62
  256
370
   -1
100
AcDbLine
 10
-8.12695252158375
 20
122.2701305528068
 11
-9.873965661290251
 21
122.2701305528068
  0
LINE
  5
149
100
AcDbEntity
  8
0
  6
ByLayer
 62
  256
370
   -1
100
AcDbLine
 10
-11.07396679208745
 20
122.2701307224263
 11
-16.49030100002016
 21
122.2701305528068
  0
LINE
  5
14A
100
AcDbEntity
  8
0
  6
ByLayer
 62
  256
370
   -1
100
AcDbLine
 10
-19.12928759895492
 20
41.9964819701194
 11
-24.12928759895492
 21
54.9964819701194
  0
LINE
  5
14B
100
AcDbEntity
  8
0
  6
ByLayer
 62
  256
370
   -1
100
AcDbLine
 10
0.8707124010450826
 20
41.9964819701194
 11
0.8707124010450826
 21
40.9964819701194
  0
LINE
  5
14C
100
AcDbEntity
  8
0
  6
ByLayer
 62
  256
370
   -1
100
AcDbLine
 10
0.8707124010450826
 20
40.9964819701194
 11
7.870712401045083
 21
40.9964819701194
  0
LINE
  5
14D
100
AcDbEntity
  8
0
  6
ByLayer
 62
  256
370
   -1
100
AcDbLine
 10
7.870712401045083
 20
40.9964819701194
 11
7.870712401045083
 21
41.9964819701194
  0
LINE
  5
14E
100
AcDbEntity
  8
0
  6
ByLayer
 62
  256
370
   -1
100
AcDbLine
 10
-19.12928759895492
 20
41.9964819701194
 11
0.8707124010450826
 21
41.9964819701194
  0
LINE
  5
14F
100
AcDbEntity
  8
0
  6
ByLayer
 62
  256
370
   -1
100
AcDbLine
 10
-24.12928759895492
 20
41.9964819701194
 11
-25.82928759895492
 21
41.9964819701194
  0
LINE
  5
150
100
AcDbEntity
  8
0
  6
ByLayer
 62
  256
370
   -1
100
AcDbLine
 10
-24.12928759895492
 20
54.9964819701194
 11
-24.12928759895492
 21
41.9964819701194
  0
LINE
  5
151
100
AcDbEntity
  8
0
  6
ByLayer
 62
  256
370
   -1
100
AcDbLine
 10
42.28003260187143
 20
56.16834209343737
 11
43.38868804088497
 21
56.62756221227548
  0
LINE
  5
152
100
AcDbEntity
  8
0
  6
ByLayer
 62
  256
370
   -1
100
AcDbLine
 10
35.59720592741565
 20
51.42146030632497
 11
36.44573406483951
 21
52.26998844374882
  0
LINE
  5
153
100
AcDbEntity
  8
0
  6
ByLayer
 62
  256
370
   -1
100
AcDbLine
 10
31.239632158889
 20
44.47850633027952
 11
31.69885227772712
 21
45.58716176929306
  0
LINE
  5
154
100
AcDbEntity
  8
0
  6
ByLayer
 62
  256
370
   -1
100
AcDbLine
 10
7.870712401045083
 20
41.9964819701194
 11
22.87071240104508
 21
47.9964819701194
  0
LINE
  5
155
100
AcDbEntity
  8
0
  6
ByLayer
 62
  256
370
   -1
100
AcDbLine
 10
24.402761391959
 20
48.60930156648497
 11
30.08036967363756
 21
50.8803448791564
  0
LINE
  5
156
100
AcDbEntity
  8
0
  6
ByLayer
 62
  256
370
   -1
100
AcDbLine
 10
24.402761391959
 20
48.60930156648497
 11
31.69885227772712
 21
45.58716176929306
  0
LINE
  5
157
100
AcDbEntity
  8
0
  6
ByLayer
 62
  256
370
   -1
100
AcDbLine
 10
22.80751574588403
 20
47.97120330805498
 11
31.239632158889
 21
44.47850633027952
  0
LINE
  5
158
100
AcDbEntity
  8
0
  6
ByLayer
 62
  256
370
   -1
100
AcDbLine
 10
32.76877880266947
 20
54.24988743107117
 11
35.59720592741565
 21
51.42146030632497
  0
LINE
  5
159
100
AcDbEntity
  8
0
  6
ByLayer
 62
  256
370
   -1
100
AcDbLine
 10
33.61730694009333
 20
55.09841556849503
 11
36.44573406483951
 21
52.26998844374882
  0
LINE
  5
15A
100
AcDbEntity
  8
0
  6
ByLayer
 62
  256
370
   -1
100
AcDbLine
 10
40.75205459000459
 20
59.85720733269417
 11
42.28003260187143
 21
56.16834209343737
  0
ARC
  5
15B
100
AcDbEntity
  8
0
  6
ByLayer
 62
  256
370
   -1
100
AcDbCircle
 10
50.87071240104508
 20
36.9964819701194
 40
25
100
AcDbArc
 50
113.8752307520186
 51
133.6247692479814
  0
LINE
  5
15C
100
AcDbEntity
  8
0
  6
ByLayer
 62
  256
370
   -1
100
AcDbLine
 10
41.85795431142462
 20
60.32308034232064
 11
43.38868804088497
 21
56.62756221227548
  0
ARC
  5
15D
100
AcDbEntity
  8
0
  6
ByLayer
 62
  256
370
   -1
100
AcDbCircle
 10
50.87071240104508
 20
36.9964819701194
 40
25
100
AcDbArc
 50
136.3752307520186
 51
146.2648635415349
  0
ARC
  5
15E
100
AcDbEntity
  8
0
  6
ByLayer
 62
  256
370
   -1
100
AcDbCircle
 10
50.87071240104508
 20
36.9964819701194
 40
25
100
AcDbArc
 50
91.37523075201852
 51
111.1247692479814
  0
LINE
  5
15F
100
AcDbEntity
  8
0
  6
ByLayer
 62
  256
370
   -1
100
AcDbLine
 10
50.2707124010451
 20
61.9964819701194
 11
50.27071240104508
 21
57.9964819701194
  0
LINE
  5
160
100
AcDbEntity
  8
0
  6
ByLayer
 62
  256
370
   -1
100
AcDbLine
 10
-19.12928759895492
 20
31.9964819701194
 11
-24.12928759895492
 21
18.9964819701194
  0
LINE
  5
161
100
AcDbEntity
  8
0
  6
ByLayer
 62
  256
370
   -1
100
AcDbLine
 10
0.8707124010450826
 20
31.9964819701194
 11
0.8707124010450826
 21
32.9964819701194
  0
LINE
  5
162
100
AcDbEntity
  8
0
  6
ByLayer
 62
  256
370
   -1
100
AcDbLine
 10
0.8707124010450826
 20
32.9964819701194
 11
7.870712401045083
 21
32.9964819701194
  0
LINE
  5
163
100
AcDbEntity
  8
0
  6
ByLayer
 62
  256
370
   -1
100
AcDbLine
 10
7.870712401045083
 20
32.9964819701194
 11
7.870712401045083
 21
31.9964819701194
  0
LINE
  5
164
100
AcDbEntity
  8
0
  6
ByLayer
 62
  256
370
   -1
100
AcDbLine
 10
-19.12928759895492
 20
31.9964819701194
 11
0.8707124010450826
 21
31.9964819701194
  0
LINE
  5
165
100
AcDbEntity
  8
0
  6
ByLayer
 62
  256
370
   -1
100
AcDbLine
 10
-24.12928759895492
 20
31.9964819701194
 11
-25.82928759895492
 21
31.9964819701194
  0
LINE
  5
166
100
AcDbEntity
  8
0
  6
ByLayer
 62
  256
370
   -1
100
AcDbLine
 10
-24.12928759895492
 20
18.9964819701194
 11
-24.12928759895492
 21
31.9964819701194
  0
LINE
  5
167
100
AcDbEntity
  8
0
  6
ByLayer
 62
  256
370
   -1
100
AcDbLine
 10
42.28003260187143
 20
17.82462184680143
 11
43.38868804088497
 21
17.36540172796333
  0
LINE
  5
168
100
AcDbEntity
  8
0
  6
ByLayer
 62
  256
370
   -1
100
AcDbLine
 10
35.59720592741565
 20
22.57150363391384
 11
36.44573406483951
 21
21.72297549648999
  0
LINE
  5
169
100
AcDbEntity
  8
0
  6
ByLayer
 62
  256
370
   -1
100
AcDbLine
 10
31.239632158889
 20
29.51445760995929
 11
31.69885227772712
 21
28.40580217094575
  0
LINE
  5
16A
100
AcDbEntity
  8
0
  6
ByLayer
 62
  256
370
   -1
100
AcDbLine
 10
7.870712401045083
 20
31.9964819701194
 11
22.87071240104508
 21
25.9964819701194
  0
LINE
  5
16B
100
AcDbEntity
  8
0
  6
ByLayer
 62
  256
370
   -1
100
AcDbLine
 10
24.402761391959
 20
25.38366237375384
 11
30.08036967363756
 21
23.11261906108241
  0
LINE
  5
16C
100
AcDbEntity
  8
0
  6
ByLayer
 62
  256
370
   -1
100
AcDbLine
 10
24.402761391959
 20
25.38366237375384
 11
31.69885227772712
 21
28.40580217094575
  0
LINE
  5
16D
100
AcDbEntity
  8
0
  6
ByLayer
 62
  256
370
   -1
100
AcDbLine
 10
22.80751574588402
 20
26.02176063218382
 11
31.239632158889
 21
29.51445760995929
  0
LINE
  5
16E
100
AcDbEntity
  8
0
  6
ByLayer
 62
  256
370
   -1
100
AcDbLine
 10
32.76877880266947
 20
19.74307650916763
 11
35.59720592741565
 21
22.57150363391384
  0
LINE
  5
16F
100
AcDbEntity
  8
0
  6
ByLayer
 62
  256
370
   -1
100
AcDbLine
 10
33.61730694009333
 20
18.89454837174378
 11
36.44573406483951
 21
21.72297549648999
  0
LINE
  5
170
100
AcDbEntity
  8
0
  6
ByLayer
 62
  256
370
   -1
100
AcDbLine
 10
40.75205459000459
 20
14.13575660754464
 11
42.28003260187143
 21
17.82462184680143
  0
ARC
  5
171
100
AcDbEntity
  8
0
  6
ByLayer
 62
  256
370
   -1
100
AcDbCircle
 10
50.87071240104508
 20
36.9964819701194
 40
25
100
AcDbArc
 50
226.3752307520186
 51
246.1247692479814
  0
LINE
  5
172
100
AcDbEntity
  8
0
  6
ByLayer
 62
  256
370
   -1
100
AcDbLine
 10
41.85795431142463
 20
13.66988359791818
 11
43.38868804088497
 21
17.36540172796333
  0
ARC
  5
173
100
AcDbEntity
  8
0
  6
ByLayer
 62
  256
370
   -1
100
AcDbCircle
 10
50.87071240104508
 20
36.9964819701194
 40
25
100
AcDbArc
 50
213.7351364584651
 51
223.6247692479814
  0
ARC
  5
174
100
AcDbEntity
  8
0
  6
ByLayer
 62
  256
370
   -1
100
AcDbCircle
 10
50.87071240104508
 20
36.9964819701194
 40
25
100
AcDbArc
 50
248.8752307520186
 51
268.6247692479815
  0
LINE
  5
175
100
AcDbEntity
  8
0
  6
ByLayer
 62
  256
370
   -1
100
AcDbLine
 10
50.27071240104508
 20
11.9964819701194
 11
50.27071240104508
 21
15.9964819701194
  0
LINE
  5
176
100
AcDbEntity
  8
0
  6
ByLayer
 62
  256
370
   -1
100
AcDbLine
 10
120.8707124010451
 20
41.9964819701194
 11
125.8707124010451
 21
54.9964819701194
  0
LINE
  5
177
100
AcDbEntity
  8
0
  6
ByLayer
 62
  256
370
   -1
100
AcDbLine
 10
100.8707124010451
 20
41.9964819701194
 11
100.8707124010451
 21
40.9964819701194
  0
LINE
  5
178
100
AcDbEntity
  8
0
  6
ByLayer
 62
  256
370
   -1
100
AcDbLine
 10
100.8707124010451
 20
40.9964819701194
 11
93.87071240104508
 21
40.9964819701194
  0
LINE
  5
179
100
AcDbEntity
  8
0
  6
ByLayer
 62
  256
370
   -1
100
AcDbLine
 10
93.87071240104508
 20
40.9964819701194
 11
93.87071240104508
 21
41.9964819701194
  0
LINE
  5
17A
100
AcDbEntity
  8
0
  6
ByLayer
 62
  256
370
   -1
100
AcDbLine
 10
120.8707124010451
 20
41.9964819701194
 11
100.8707124010451
 21
41.9964819701194
  0
LINE
  5
17B
100
AcDbEntity
  8
0
  6
ByLayer
 62
  256
370
   -1
100
AcDbLine
 10
125.8707124010451
 20
41.9964819701194
 11
127.5707124010451
 21
41.9964819701194
  0
LINE
  5
17C
100
AcDbEntity
  8
0
  6
ByLayer
 62
  256
370
   -1
100
AcDbLine
 10
125.8707124010451
 20
54.9964819701194
 11
125.8707124010451
 21
41.9964819701194
  0
LINE
  5
17D
100
AcDbEntity
  8
0
  6
ByLayer
 62
  256
370
   -1
100
AcDbLine
 10
59.46139220021874
 20
56.16834209343737
 11
58.35273676120519
 21
56.62756221227548
  0
LINE
  5
17E
100
AcDbEntity
  8
0
  6
ByLayer
 62
  256
370
   -1
100
AcDbLine
 10
66.14421887467451
 20
51.42146030632497
 11
65.29569073725065
 21
52.26998844374882
  0
LINE
  5
17F
100
AcDbEntity
  8
0
  6
ByLayer
 62
  256
370
   -1
100
AcDbLine
 10
70.50179264320116
 20
44.47850633027952
 11
70.04257252436304
 21
45.58716176929306
  0
LINE
  5
180
100
AcDbEntity
  8
0
  6
ByLayer
 62
  256
370
   -1
100
AcDbLine
 10
93.87071240104508
 20
41.9964819701194
 11
78.87071240104508
 21
47.9964819701194
  0
LINE
  5
181
100
AcDbEntity
  8
0
  6
ByLayer
 62
  256
370
   -1
100
AcDbLine
 10
77.33866341013116
 20
48.60930156648497
 11
71.6610551284526
 21
50.8803448791564
  0
LINE
  5
182
100
AcDbEntity
  8
0
  6
ByLayer
 62
  256
370
   -1
100
AcDbLine
 10
77.33866341013116
 20
48.60930156648497
 11
70.04257252436304
 21
45.58716176929306
  0
LINE
  5
183
100
AcDbEntity
  8
0
  6
ByLayer
 62
  256
370
   -1
100
AcDbLine
 10
78.93390905620613
 20
47.97120330805498
 11
70.50179264320116
 21
44.47850633027952
  0
LINE
  5
184
100
AcDbEntity
  8
0
  6
ByLayer
 62
  256
370
   -1
100
AcDbLine
 10
68.97264599942069
 20
54.24988743107117
 11
66.14421887467451
 21
51.42146030632497
  0
LINE
  5
185
100
AcDbEntity
  8
0
  6
ByLayer
 62
  256
370
   -1
100
AcDbLine
 10
68.12411786199684
 20
55.09841556849503
 11
65.29569073725065
 21
52.26998844374882
  0
LINE
  5
186
100
AcDbEntity
  8
0
  6
ByLayer
 62
  256
370
   -1
100
AcDbLine
 10
60.98937021208557
 20
59.85720733269417
 11
59.46139220021874
 21
56.16834209343737
  0
ARC
  5
187
100
AcDbEntity
  8
0
  6
ByLayer
 62
  256
370
   -1
100
AcDbCircle
 10
50.87071240104508
 20
36.9964819701194
 40
25
100
AcDbArc
 50
46.3752307520186
 51
66.12476924798145
  0
LINE
  5
188
100
AcDbEntity
  8
0
  6
ByLayer
 62
  256
370
   -1
100
AcDbLine
 10
59.88347049066554
 20
60.32308034232064
 11
58.35273676120519
 21
56.62756221227548
  0
ARC
  5
189
100
AcDbEntity
  8
0
  6
ByLayer
 62
  256
370
   -1
100
AcDbCircle
 10
50.87071240104508
 20
36.9964819701194
 40
25
100
AcDbArc
 50
33.73513645846514
 51
43.62476924798145
  0
ARC
  5
18A
100
AcDbEntity
  8
0
  6
ByLayer
 62
  256
370
   -1
100
AcDbCircle
 10
50.87071240104508
 20
36.9964819701194
 40
25
100
AcDbArc
 50
68.8752307520186
 51
88.62476924798148
  0
LINE
  5
18B
100
AcDbEntity
  8
0
  6
ByLayer
 62
  256
370
   -1
100
AcDbLine
 10
51.47071240104507
 20
61.9964819701194
 11
51.47071240104508
 21
57.9964819701194
  0
LINE
  5
18C
100
AcDbEntity
  8
0
  6
ByLayer
 62
  256
370
   -1
100
AcDbLine
 10
120.8707124010451
 20
31.9964819701194
 11
125.8707124010451
 21
18.9964819701194
  0
LINE
  5
18D
100
AcDbEntity
  8
0
  6
ByLayer
 62
  256
370
   -1
100
AcDbLine
 10
100.8707124010451
 20
31.9964819701194
 11
100.8707124010451
 21
32.9964819701194
  0
LINE
  5
18E
100
AcDbEntity
  8
0
  6
ByLayer
 62
  256
370
   -1
100
AcDbLine
 10
100.8707124010451
 20
32.9964819701194
 11
93.87071240104508
 21
32.9964819701194
  0
LINE
  5
18F
100
AcDbEntity
  8
0
  6
ByLayer
 62
  256
370
   -1
100
AcDbLine
 10
93.87071240104508
 20
32.9964819701194
 11
93.87071240104508
 21
31.9964819701194
  0
LINE
  5
190
100
AcDbEntity
  8
0
  6
ByLayer
 62
  256
370
   -1
100
AcDbLine
 10
120.8707124010451
 20
31.9964819701194
 11
100.8707124010451
 21
31.9964819701194
  0
LINE
  5
191
100
AcDbEntity
  8
0
  6
ByLayer
 62
  256
370
   -1
100
AcDbLine
 10
125.8707124010451
 20
31.9964819701194
 11
127.5707124010451
 21
31.9964819701194
  0
LINE
  5
192
100
AcDbEntity
  8
0
  6
ByLayer
 62
  256
370
   -1
100
AcDbLine
 10
125.8707124010451
 20
18.9964819701194
 11
125.8707124010451
 21
31.9964819701194
  0
LINE
  5
193
100
AcDbEntity
  8
0
  6
ByLayer
 62
  256
370
   -1
100
AcDbLine
 10
59.46139220021874
 20
17.82462184680143
 11
58.35273676120519
 21
17.36540172796333
  0
LINE
  5
194
100
AcDbEntity
  8
0
  6
ByLayer
 62
  256
370
   -1
100
AcDbLine
 10
66.14421887467451
 20
22.57150363391384
 11
65.29569073725065
 21
21.72297549648999
  0
LINE
  5
195
100
AcDbEntity
  8
0
  6
ByLayer
 62
  256
370
   -1
100
AcDbLine
 10
70.50179264320116
 20
29.51445760995929
 11
70.04257252436304
 21
28.40580217094575
  0
LINE
  5
196
100
AcDbEntity
  8
0
  6
ByLayer
 62
  256
370
   -1
100
AcDbLine
 10
93.87071240104508
 20
31.9964819701194
 11
78.87071240104508
 21
25.9964819701194
  0
LINE
  5
197
100
AcDbEntity
  8
0
  6
ByLayer
 62
  256
370
   -1
100
AcDbLine
 10
77.33866341013116
 20
25.38366237375384
 11
71.6610551284526
 21
23.11261906108241
  0
LINE
  5
198
100
AcDbEntity
  8
0
  6
ByLayer
 62
  256
370
   -1
100
AcDbLine
 10
77.33866341013116
 20
25.38366237375384
 11
70.04257252436304
 21
28.40580217094575
  0
LINE
  5
199
100
AcDbEntity
  8
0
  6
ByLayer
 62
  256
370
   -1
100
AcDbLine
 10
78.93390905620615
 20
26.02176063218382
 11
70.50179264320116
 21
29.51445760995929
  0
LINE
  5
19A
100
AcDbEntity
  8
0
  6
ByLayer
 62
  256
370
   -1
100
AcDbLine
 10
68.97264599942069
 20
19.74307650916763
 11
66.14421887467451
 21
22.57150363391384
  0
LINE
  5
19B
100
AcDbEntity
  8
0
  6
ByLayer
 62
  256
370
   -1
100
AcDbLine
 10
68.12411786199684
 20
18.89454837174378
 11
65.29569073725065
 21
21.72297549648999
  0
LINE
  5
19C
100
AcDbEntity
  8
0
  6
ByLayer
 62
  256
370
   -1
100
AcDbLine
 10
60.98937021208557
 20
14.13575660754464
 11
59.46139220021874
 21
17.82462184680143
  0
ARC
  5
19D
100
AcDbEntity
  8
0
  6
ByLayer
 62
  256
370
   -1
100
AcDbCircle
 10
50.87071240104508
 20
36.9964819701194
 40
25
100
AcDbArc
 50
293.8752307520185
 51
313.6247692479814
  0
LINE
  5
19E
100
AcDbEntity
  8
0
  6
ByLayer
 62
  256
370
   -1
100
AcDbLine
 10
59.88347049066553
 20
13.66988359791818
 11
58.35273676120519
 21
17.36540172796333
  0
ARC
  5
19F
100
AcDbEntity
  8
0
  6
ByLayer
 62
  256
370
   -1
100
AcDbCircle
 10
50.87071240104508
 20
36.9964819701194
 40
25
100
AcDbArc
 50
316.3752307520186
 51
326.2648635415349
  0
ARC
  5
1A0
100
AcDbEntity
  8
0
  6
ByLayer
 62
  256
370
   -1
100
AcDbCircle
 10
50.87071240104508
 20
36.9964819701194
 40
25
100
AcDbArc
 50
271.3752307520185
 51
291.1247692479814
  0
LINE
  5
1A1
100
AcDbEntity
  8
0
  6
ByLayer
 62
  256
370
   -1
100
AcDbLine
 10
51.47071240104508
 20
11.9964819701194
 11
51.47071240104508
 21
15.9964819701194
  0
LINE
  5
1A2
100
AcDbEntity
  8
0
  6
ByLayer
 62
  256
370
   -1
100
AcDbLine
 10
50.27071240104508
 20
57.9964819701194
 11
51.47071240104508
 21
57.9964819701194
  0
LINE
  5
1A3
100
AcDbEntity
  8
0
  6
ByLayer
 62
  256
370
   -1
100
AcDbLine
 10
50.27071240104508
 20
15.9964819701194
 11
51.47071240104508
 21
15.9964819701194
  0
LINE
  5
1A4
100
AcDbEntity
  8
0
  6
ByLayer
 62
  256
370
   -1
100
AcDbLine
 10
50.87071240104508
 20
43.9964819701194
 11
45.92096493273925
 21
41.94622943842523
  0
LINE
  5
1A5
100
AcDbEntity
  8
0
  6
ByLayer
 62
  256
370
   -1
100
AcDbLine
 10
45.92096493273925
 20
41.94622943842523
 11
43.87071240104508
 21
36.9964819701194
  0
LINE
  5
1A6
100
AcDbEntity
  8
0
  6
ByLayer
 62
  256
370
   -1
100
AcDbLine
 10
43.87071240104508
 20
36.9964819701194
 11
45.92096493273925
 21
32.04673450181357
  0
LINE
  5
1A7
100
AcDbEntity
  8
0
  6
ByLayer
 62
  256
370
   -1
100
AcDbLine
 10
45.92096493273925
 20
32.04673450181357
 11
50.87071240104508
 21
29.9964819701194
  0
LINE
  5
1A8
100
AcDbEntity
  8
0
  6
ByLayer
 62
  256
370
   -1
100
AcDbLine
 10
50.87071240104508
 20
29.9964819701194
 11
55.82045986935091
 21
32.04673450181357
  0
LINE
  5
1A9
100
AcDbEntity
  8
0
  6
ByLayer
 62
  256
370
   -1
100
AcDbLine
 10
55.82045986935091
 20
32.04673450181357
 11
57.87071240104508
 21
36.9964819701194
  0
LINE
  5
1AA
100
AcDbEntity
  8
0
  6
ByLayer
 62
  256
370
   -1
100
AcDbLine
 10
57.87071240104508
 20
36.9964819701194
 11
55.82045986935091
 21
41.94622943842523
  0
LINE
  5
1AB
100
AcDbEntity
  8
0
  6
ByLayer
 62
  256
370
   -1
100
AcDbLine
 10
55.82045986935091
 20
41.94622943842523
 11
50.87071240104508
 21
43.9964819701194
  0
LINE
  5
1AC
100
AcDbEntity
  8
0
  6
ByLayer
 62
  256
370
   -1
100
AcDbLine
 10
45.50675137036614
 20
43.77465656317143
 11
40.9948139379734
 21
48.28659399556418
  0
ARC
  5
1AD
100
AcDbEntity
  8
0
  6
ByLayer
 62
  256
370
   -1
100
AcDbCircle
 10
50.87071240104508
 20
36.9964819701194
 40
15
100
AcDbArc
 50
93.82255372927438
 51
131.1774462707256
  0
LINE
  5
1AE
100
AcDbEntity
  8
0
  6
ByLayer
 62
  256
370
   -1
100
AcDbLine
 10
49.87071240104508
 20
45.5822684077463
 11
49.87071240104508
 21
51.96311151721507
  0
LINE
  5
1AF
100
AcDbEntity
  8
0
  6
ByLayer
 62
  256
370
   -1
100
AcDbLine
 10
49.87071240104509
 20
45.58226840774631
 11
45.50675137036614
 21
43.77465656317143
  0
LINE
  5
1B0
100
AcDbEntity
  8
0
  6
ByLayer
 62
  256
370
   -1
100
AcDbLine
 10
42.28492596341816
 20
37.9964819701194
 11
35.90408285394949
 21
37.9964819701194
  0
ARC
  5
1B1
100
AcDbEntity
  8
0
  6
ByLayer
 62
  256
370
   -1
100
AcDbCircle
 10
50.87071240104508
 20
36.9964819701194
 40
15
100
AcDbArc
 50
138.8225537292744
 51
176.1774462707256
  0
LINE
  5
1B2
100
AcDbEntity
  8
0
  6
ByLayer
 62
  256
370
   -1
100
AcDbLine
 10
44.09253780799307
 20
42.36044300079833
 11
39.58060037560024
 21
46.87238043319115
  0
LINE
  5
1B3
100
AcDbEntity
  8
0
  6
ByLayer
 62
  256
370
   -1
100
AcDbLine
 10
44.09253780799307
 20
42.36044300079834
 11
42.28492596341816
 21
37.9964819701194
  0
LINE
  5
1B4
100
AcDbEntity
  8
0
  6
ByLayer
 62
  256
370
   -1
100
AcDbLine
 10
44.09253780799305
 20
31.63252093944047
 11
39.58060037560031
 21
27.12058350704773
  0
ARC
  5
1B5
100
AcDbEntity
  8
0
  6
ByLayer
 62
  256
370
   -1
100
AcDbCircle
 10
50.87071240104508
 20
36.9964819701194
 40
15
100
AcDbArc
 50
183.8225537292744
 51
221.1774462707256
  0
LINE
  5
1B6
100
AcDbEntity
  8
0
  6
ByLayer
 62
  256
370
   -1
100
AcDbLine
 10
42.28492596341819
 20
35.9964819701194
 11
35.90408285394942
 21
35.9964819701194
  0
LINE
  5
1B7
100
AcDbEntity
  8
0
  6
ByLayer
 62
  256
370
   -1
100
AcDbLine
 10
42.28492596341817
 20
35.99648197011942
 11
44.09253780799305
 21
31.63252093944047
  0
LINE
  5
1B8
100
AcDbEntity
  8
0
  6
ByLayer
 62
  256
370
   -1
100
AcDbLine
 10
49.87071240104509
 20
28.41069553249248
 11
49.87071240104508
 21
22.02985242302383
  0
ARC
  5
1B9
100
AcDbEntity
  8
0
  6
ByLayer
 62
  256
370
   -1
100
AcDbCircle
 10
50.87071240104508
 20
36.9964819701194
 40
15
100
AcDbArc
 50
228.8225537292744
 51
266.1774462707256
  0
LINE
  5
1BA
100
AcDbEntity
  8
0
  6
ByLayer
 62
  256
370
   -1
100
AcDbLine
 10
45.50675137036616
 20
30.21830737706739
 11
40.99481393797334
 21
25.70636994467456
  0
LINE
  5
1BB
100
AcDbEntity
  8
0
  6
ByLayer
 62
  256
370
   -1
100
AcDbLine
 10
45.50675137036615
 20
30.21830737706739
 11
49.87071240104509
 21
28.41069553249248
  0
LINE
  5
1BC
100
AcDbEntity
  8
0
  6
ByLayer
 62
  256
370
   -1
100
AcDbLine
 10
56.23467343172403
 20
30.21830737706738
 11
60.74661086411677
 21
25.70636994467463
  0
ARC
  5
1BD
100
AcDbEntity
  8
0
  6
ByLayer
 62
  256
370
   -1
100
AcDbCircle
 10
50.87071240104508
 20
36.9964819701194
 40
15
100
AcDbArc
 50
273.8225537292744
 51
311.1774462707256
  0
LINE
  5
1BE
100
AcDbEntity
  8
0
  6
ByLayer
 62
  256
370
   -1
100
AcDbLine
 10
51.87071240104508
 20
28.41069553249251
 11
51.87071240104508
 21
22.02985242302374
  0
LINE
  5
1BF
100
AcDbEntity
  8
0
  6
ByLayer
 62
  256
370
   -1
100
AcDbLine
 10
51.87071240104507
 20
28.4106955324925
 11
56.23467343172403
 21
30.21830737706738
  0
LINE
  5
1C0
100
AcDbEntity
  8
0
  6
ByLayer
 62
  256
370
   -1
100
AcDbLine
 10
59.456498838672
 20
35.9964819701194
 11
65.83734194814068
 21
35.9964819701194
  0
ARC
  5
1C1
100
AcDbEntity
  8
0
  6
ByLayer
 62
  256
370
   -1
100
AcDbCircle
 10
50.87071240104508
 20
36.9964819701194
 40
15
100
AcDbArc
 50
318.8225537292744
 51
356.1774462707256
  0
LINE
  5
1C2
100
AcDbEntity
  8
0
  6
ByLayer
 62
  256
370
   -1
100
AcDbLine
 10
57.6488869940971
 20
31.63252093944048
 11
62.16082442648992
 21
27.12058350704766
  0
LINE
  5
1C3
100
AcDbEntity
  8
0
  6
ByLayer
 62
  256
370
   -1
100
AcDbLine
 10
57.6488869940971
 20
31.63252093944047
 11
59.456498838672
 21
35.9964819701194
  0
LINE
  5
1C4
100
AcDbEntity
  8
0
  6
ByLayer
 62
  256
370
   -1
100
AcDbLine
 10
57.64888699409711
 20
42.36044300079834
 11
62.16082442648987
 21
46.87238043319108
  0
ARC
  5
1C5
100
AcDbEntity
  8
0
  6
ByLayer
 62
  256
370
   -1
100
AcDbCircle
 10
50.87071240104508
 20
36.9964819701194
 40
15
100
AcDbArc
 50
3.82255372927438
 51
41.17744627072557
  0
LINE
  5
1C6
100
AcDbEntity
  8
0
  6
ByLayer
 62
  256
370
   -1
100
AcDbLine
 10
59.45649883867198
 20
37.9964819701194
 11
65.83734194814075
 21
37.9964819701194
  0
LINE
  5
1C7
100
AcDbEntity
  8
0
  6
ByLayer
 62
  256
370
   -1
100
AcDbLine
 10
59.45649883867199
 20
37.99648197011939
 11
57.64888699409711
 21
42.36044300079834
  0
LINE
  5
1C8
100
AcDbEntity
  8
0
  6
ByLayer
 62
  256
370
   -1
100
AcDbLine
 10
51.87071240104508
 20
45.58226840774633
 11
51.87071240104509
 21
51.96311151721498
  0
ARC
  5
1C9
100
AcDbEntity
  8
0
  6
ByLayer
 62
  256
370
   -1
100
AcDbCircle
 10
50.87071240104508
 20
36.9964819701194
 40
15
100
AcDbArc
 50
48.82255372927438
 51
86.17744627072557
  0
LINE
  5
1CA
100
AcDbEntity
  8
0
  6
ByLayer
 62
  256
370
   -1
100
AcDbLine
 10
56.234673431724
 20
43.77465656317142
 11
60.74661086411682
 21
48.28659399556425
  0
LINE
  5
1CB
100
AcDbEntity
  8
0
  6
ByLayer
 62
  256
370
   -1
100
AcDbLine
 10
56.23467343172402
 20
43.77465656317142
 11
51.87071240104508
 21
45.58226840774633
  0
LINE
  5
1CC
100
AcDbEntity
  8
0
  6
ByLayer
 62
  256
370
   -1
100
AcDbLine
 10
31.88130393576885
 20
37.59648197011938
 11
33.88130393576886
 21
37.59648197011941
  0
LINE
  5
1CD
100
AcDbEntity
  8
0
  6
ByLayer
 62
  256
370
   -1
100
AcDbLine
 10
31.88130393576885
 20
37.59648197011938
 11
31.87071240104508
 21
38.2964819701194
  0
LINE
  5
1CE
100
AcDbEntity
  8
0
  6
ByLayer
 62
  256
370
   -1
100
AcDbLine
 10
31.87071240104508
 20
38.2964819701194
 11
33.98558244840486
 21
38.9693951670066
  0
LINE
  5
1CF
100
AcDbEntity
  8
0
  6
ByLayer
 62
  256
370
   -1
100
AcDbLine
 10
31.88130393576885
 20
36.39648197011942
 11
33.88130393576886
 21
36.3964819701194
  0
LINE
  5
1D0
100
AcDbEntity
  8
0
  6
ByLayer
 62
  256
370
   -1
100
AcDbLine
 10
31.88130393576885
 20
36.39648197011942
 11
31.87071240104508
 21
35.69648197011941
  0
LINE
  5
1D1
100
AcDbEntity
  8
0
  6
ByLayer
 62
  256
370
   -1
100
AcDbLine
 10
31.87071240104508
 20
35.69648197011941
 11
33.98558244840486
 21
35.02356877323221
  0
LINE
  5
1D2
100
AcDbEntity
  8
0
  6
ByLayer
 62
  256
370
   -1
100
AcDbLine
 10
33.88130393576886
 20
36.3964819701194
 11
33.88130393576886
 21
37.59648197011941
  0
LINE
  5
1D3
100
AcDbEntity
  8
0
  6
ByLayer
 62
  256
370
   -1
100
AcDbLine
 10
69.86012086632132
 20
37.59648197011933
 11
67.86012086632132
 21
37.59648197011936
  0
LINE
  5
1D4
100
AcDbEntity
  8
0
  6
ByLayer
 62
  256
370
   -1
100
AcDbLine
 10
69.86012086632132
 20
37.59648197011933
 11
69.8707124010451
 21
38.29648197011934
  0
LINE
  5
1D5
100
AcDbEntity
  8
0
  6
ByLayer
 62
  256
370
   -1
100
AcDbLine
 10
69.8707124010451
 20
38.29648197011934
 11
67.75584235368532
 21
38.96939516700654
  0
LINE
  5
1D6
100
AcDbEntity
  8
0
  6
ByLayer
 62
  256
370
   -1
100
AcDbLine
 10
69.86012086632131
 20
36.39648197011937
 11
67.86012086632131
 21
36.39648197011934
  0
LINE
  5
1D7
100
AcDbEntity
  8
0
  6
ByLayer
 62
  256
370
   -1
100
AcDbLine
 10
69.86012086632131
 20
36.39648197011937
 11
69.87071240104508
 21
35.69648197011935
  0
LINE
  5
1D8
100
AcDbEntity
  8
0
  6
ByLayer
 62
  256
370
   -1
100
AcDbLine
 10
69.87071240104508
 20
35.69648197011935
 11
67.75584235368531
 21
35.02356877323216
  0
LINE
  5
1D9
100
AcDbEntity
  8
0
  6
ByLayer
 62
  256
370
   -1
100
AcDbLine
 10
67.86012086632131
 20
36.39648197011934
 11
67.86012086632132
 21
37.59648197011936
  0
ARC
  5
1DA
100
AcDbEntity
  8
0
  6
ByLayer
 62
  256
370
   -1
100
AcDbCircle
 10
50.87071240104508
 20
36.9964819701194
 40
17
100
AcDbArc
 50
186.6644055799237
 51
353.3355944200761
  0
ARC
  5
1DB
100
AcDbEntity
  8
0
  6
ByLayer
 62
  256
370
   -1
100
AcDbCircle
 10
50.87071240104508
 20
36.9964819701194
 40
17
100
AcDbArc
 50
6.664405579923494
 51
173.3355944200763
  0
LINE
  5
1DC
100
AcDbEntity
  8
0
  6
ByLayer
 62
  256
370
   -1
100
AcDbLine
 10
19.87071223142551
 20
36.39648197011935
 11
19.87071257066465
 21
37.59648197011931
  0
LINE
  5
1DD
100
AcDbEntity
  8
0
  6
ByLayer
 62
  256
370
   -1
100
AcDbLine
 10
-25.82928759895492
 20
37.59648197011931
 11
-25.82928759895492
 21
41.9964819701194
  0
LINE
  5
1DE
100
AcDbEntity
  8
0
  6
ByLayer
 62
  256
370
   -1
100
AcDbLine
 10
-25.82928759895492
 20
31.9964819701194
 11
-25.82928759895492
 21
36.39648197011935
  0
LINE
  5
1DF
100
AcDbEntity
  8
0
  6
ByLayer
 62
  256
370
   -1
100
AcDbLine
 10
19.87071223142551
 20
36.39648197011935
 11
-25.82928759895492
 21
36.39648197011935
  0
LINE
  5
1E0
100
AcDbEntity
  8
0
  6
ByLayer
 62
  256
370
   -1
100
AcDbLine
 10
19.87071257066465
 20
37.59648197011931
 11
-25.82928759895492
 21
37.59648197011931
  0
LINE
  5
1E1
100
AcDbEntity
  8
0
  6
ByLayer
 62
  256
370
   -1
100
AcDbLine
 10
81.87071257066465
 20
36.39648197011933
 11
81.87071223142551
 21
37.59648197011929
  0
LINE
  5
1E2
100
AcDbEntity
  8
0
  6
ByLayer
 62
  256
370
   -1
100
AcDbLine
 10
127.5707124010451
 20
37.59648197011926
 11
127.5707124010451
 21
41.99648197011935
  0
LINE
  5
1E3
100
AcDbEntity
  8
0
  6
ByLayer
 62
  256
370
   -1
100
AcDbLine
 10
127.5707124010451
 20
31.99648197011935
 11
127.5707124010451
 21
36.3964819701193
  0
LINE
  5
1E4
100
AcDbEntity
  8
0
  6
ByLayer
 62
  256
370
   -1
100
AcDbLine
 10
81.87071257066465
 20
36.39648197011933
 11
127.5707124010451
 21
36.3964819701193
  0
LINE
  5
1E5
100
AcDbEntity
  8
0
  6
ByLayer
 62
  256
370
   -1
100
AcDbLine
 10
81.87071223142551
 20
37.59648197011929
 11
127.5707124010451
 21
37.59648197011926
  0
LINE
  5
1E6
100
AcDbEntity
  8
0
  6
ByLayer
 62
  256
370
   -1
100
AcDbLine
 10
229.0842825910373
 20
126.7770079463184
 11
189.0842825910373
 21
196.0590402490735
  0
LINE
  5
1E7
100
AcDbEntity
  8
0
  6
ByLayer
 62
  256
370
   -1
100
AcDbLine
 10
189.0842825910373
 20
196.0590402490735
 11
109.0842825910373
 21
196.0590402490735
  0
LINE
  5
1E8
100
AcDbEntity
  8
0
  6
ByLayer
 62
  256
370
   -1
100
AcDbLine
 10
109.0842825910373
 20
196.0590402490735
 11
69.08428259103729
 21
126.7770079463184
  0
LINE
  5
1E9
100
AcDbEntity
  8
0
  6
ByLayer
 62
  256
370
   -1
100
AcDbLine
 10
69.08428259103729
 20
126.7770079463184
 11
109.0842825910373
 21
57.49497564356331
  0
LINE
  5
1EA
100
AcDbEntity
  8
0
  6
ByLayer
 62
  256
370
   -1
100
AcDbLine
 10
109.0842825910373
 20
57.49497564356331
 11
189.0842825910372
 21
57.49497564356331
  0
LINE
  5
1EB
100
AcDbEntity
  8
0
  6
ByLayer
 62
  256
370
   -1
100
AcDbLine
 10
189.0842825910372
 20
57.49497564356331
 11
229.0842825910373
 21
126.7770079463184
  0
LINE
  5
1EC
100
AcDbEntity
  8
0
  6
ByLayer
 62
  256
370
   -1
100
AcDbLine
 10
148.4842825910373
 20
121.9270079463184
 11
149.6842825910373
 21
121.9270079463184
  0
LINE
  5
1ED
100
AcDbEntity
  8
0
  6
ByLayer
 62
  256
370
   -1
100
AcDbLine
 10
148.4842825910373
 20
121.9270079463184
 11
148.4842825910373
 21
126.1770079463184
  0
LINE
  5
1EE
100
AcDbEntity
  8
0
  6
ByLayer
 62
  256
370
   -1
100
AcDbLine
 10
148.4842825910373
 20
126.1770079463184
 11
144.2342825910373
 21
126.1770079463184
  0
LINE
  5
1EF
100
AcDbEntity
  8
0
  6
ByLayer
 62
  256
370
   -1
100
AcDbLine
 10
153.9342825910373
 20
126.1770079463184
 11
153.9342825910373
 21
127.3770079463184
  0
LINE
  5
1F0
100
AcDbEntity
  8
0
  6
ByLayer
 62
  256
370
   -1
100
AcDbLine
 10
153.9342825910373
 20
126.1770079463184
 11
149.6842825910373
 21
126.1770079463184
  0
LINE
  5
1F1
100
AcDbEntity
  8
0
  6
ByLayer
 62
  256
370
   -1
100
AcDbLine
 10
149.6842825910373
 20
126.1770079463184
 11
149.6842825910373
 21
121.9270079463184
  0
LINE
  5
1F2
100
AcDbEntity
  8
0
  6
ByLayer
 62
  256
370
   -1
100
AcDbLine
 10
149.6842825910373
 20
131.6270079463184
 11
148.4842825910373
 21
131.6270079463184
  0
LINE
  5
1F3
100
AcDbEntity
  8
0
  6
ByLayer
 62
  256
370
   -1
100
AcDbLine
 10
149.6842825910373
 20
131.6270079463184
 11
149.6842825910373
 21
127.3770079463184
  0
LINE
  5
1F4
100
AcDbEntity
  8
0
  6
ByLayer
 62
  256
370
   -1
100
AcDbLine
 10
149.6842825910373
 20
127.3770079463184
 11
153.9342825910373
 21
127.3770079463184
  0
LINE
  5
1F5
100
AcDbEntity
  8
0
  6
ByLayer
 62
  256
370
   -1
100
AcDbLine
 10
144.2342825910373
 20
127.3770079463184
 11
144.2342825910373
 21
126.1770079463184
  0
LINE
  5
1F6
100
AcDbEntity
  8
0
  6
ByLayer
 62
  256
370
   -1
100
AcDbLine
 10
144.2342825910373
 20
127.3770079463184
 11
148.4842825910373
 21
127.3770079463184
  0
LINE
  5
1F7
100
AcDbEntity
  8
0
  6
ByLayer
 62
  256
370
   -1
100
AcDbLine
 10
148.4842825910373
 20
127.3770079463184
 11
148.4842825910373
 21
131.6270079463184
  0
LINE
  5
1F8
100
AcDbEntity
  8
0
  6
ByLayer
 62
  256
370
   -1
100
AcDbLine
 10
154.2804350137439
 20
111.7770079463184
 11
182.1560793607617
 21
63.49497564356331
  0
LINE
  5
1F9
100
AcDbEntity
  8
0
  6
ByLayer
 62
  256
370
   -1
100
AcDbLine
 10
116.0124858213128
 20
63.49497564356342
 11
182.1560793607617
 21
63.49497564356331
  0
LINE
  5
1FA
100
AcDbEntity
  8
0
  6
ByLayer
 62
  256
370
   -1
100
AcDbLine
 10
143.8881301683307
 20
111.7770079463184
 11
116.0124858213128
 21
63.49497564356342
  0
LINE
  5
1FB
100
AcDbEntity
  8
0
  6
ByLayer
 62
  256
370
   -1
100
AcDbLine
 10
143.8881301683307
 20
111.7770079463184
 11
154.2804350137439
 21
111.7770079463184
  0
LINE
  5
1FC
100
AcDbEntity
  8
0
  6
ByLayer
 62
  256
370
   -1
100
AcDbLine
 10
164.6727398591572
 20
123.7770079463184
 11
220.4240285531929
 21
123.7770079463183
  0
LINE
  5
1FD
100
AcDbEntity
  8
0
  6
ByLayer
 62
  256
370
   -1
100
AcDbLine
 10
187.3522317834683
 20
66.49497564356331
 11
220.4240285531929
 21
123.7770079463183
  0
LINE
  5
1FE
100
AcDbEntity
  8
0
  6
ByLayer
 62
  256
370
   -1
100
AcDbLine
 10
159.4765874364506
 20
114.7770079463184
 11
187.3522317834683
 21
66.49497564356331
  0
LINE
  5
1FF
100
AcDbEntity
  8
0
  6
ByLayer
 62
  256
370
   -1
100
AcDbLine
 10
159.4765874364506
 20
114.7770079463184
 11
164.6727398591572
 21
123.7770079463184
  0
LINE
  5
200
100
AcDbEntity
  8
0
  6
ByLayer
 62
  256
370
   -1
100
AcDbLine
 10
159.4765874364506
 20
138.7770079463184
 11
187.3522317834685
 21
187.0590402490735
  0
LINE
  5
201
100
AcDbEntity
  8
0
  6
ByLayer
 62
  256
370
   -1
100
AcDbLine
 10
220.4240285531929
 20
129.7770079463183
 11
187.3522317834685
 21
187.0590402490735
  0
LINE
  5
202
100
AcDbEntity
  8
0
  6
ByLayer
 62
  256
370
   -1
100
AcDbLine
 10
164.6727398591572
 20
129.7770079463184
 11
220.4240285531929
 21
129.7770079463183
  0
LINE
  5
203
100
AcDbEntity
  8
0
  6
ByLayer
 62
  256
370
   -1
100
AcDbLine
 10
164.6727398591572
 20
129.7770079463184
 11
159.4765874364506
 21
138.7770079463184
  0
LINE
  5
204
100
AcDbEntity
  8
0
  6
ByLayer
 62
  256
370
   -1
100
AcDbLine
 10
143.8881301683307
 20
141.7770079463184
 11
116.0124858213129
 21
190.0590402490735
  0
LINE
  5
205
100
AcDbEntity
  8
0
  6
ByLayer
 62
  256
370
   -1
100
AcDbLine
 10
182.1560793607618
 20
190.0590402490734
 11
116.0124858213129
 21
190.0590402490735
  0
LINE
  5
206
100
AcDbEntity
  8
0
  6
ByLayer
 62
  256
370
   -1
100
AcDbLine
 10
154.280435013744
 20
141.7770079463184
 11
182.1560793607618
 21
190.0590402490734
  0
LINE
  5
207
100
AcDbEntity
  8
0
  6
ByLayer
 62
  256
370
   -1
100
AcDbLine
 10
154.280435013744
 20
141.7770079463184
 11
143.8881301683307
 21
141.7770079463184
  0
LINE
  5
208
100
AcDbEntity
  8
0
  6
ByLayer
 62
  256
370
   -1
100
AcDbLine
 10
133.4958253229174
 20
129.7770079463184
 11
77.74453662888169
 21
129.7770079463185
  0
LINE
  5
209
100
AcDbEntity
  8
0
  6
ByLayer
 62
  256
370
   -1
100
AcDbLine
 10
110.8163333986063
 20
187.0590402490735
 11
77.74453662888169
 21
129.7770079463185
  0
LINE
  5
20A
100
AcDbEntity
  8
0
  6
ByLayer
 62
  256
370
   -1
100
AcDbLine
 10
138.6919777456241
 20
138.7770079463184
 11
110.8163333986063
 21
187.0590402490735
  0
LINE
  5
20B
100
AcDbEntity
  8
0
  6
ByLayer
 62
  256
370
   -1
100
AcDbLine
 10
138.6919777456241
 20
138.7770079463184
 11
133.4958253229174
 21
129.7770079463184
  0
LINE
  5
20C
100
AcDbEntity
  8
0
  6
ByLayer
 62
  256
370
   -1
100
AcDbLine
 10
138.691977745624
 20
114.7770079463184
 11
110.8163333986061
 21
66.49497564356342
  0
LINE
  5
20D
100
AcDbEntity
  8
0
  6
ByLayer
 62
  256
370
   -1
100
AcDbLine
 10
77.74453662888172
 20
123.7770079463185
 11
110.8163333986061
 21
66.49497564356342
  0
LINE
  5
20E
100
AcDbEntity
  8
0
  6
ByLayer
 62
  256
370
   -1
100
AcDbLine
 10
133.4958253229174
 20
123.7770079463184
 11
77.74453662888172
 21
123.7770079463185
  0
LINE
  5
20F
100
AcDbEntity
  8
0
  6
ByLayer
 62
  256
370
   -1
100
AcDbLine
 10
133.4958253229174
 20
123.7770079463184
 11
138.691977745624
 21
114.7770079463184
  0
ARC
  5
210
100
AcDbEntity
  8
0
  6
ByLayer
 62
  256
370
   -1
100
AcDbCircle
 10
148.3577257544972
 20
68.15608254057402
 40
25
100
AcDbArc
 50
13.88654036262894
 51
137.1563569564037
  0
LINE
  5
211
100
AcDbEntity
  8
0
  6
ByLayer
 62
  256
370
   -1
100
AcDbLine
 10
147.7577246237001
 20
85.15608271019353
 11
147.7577257544972
 21
89.15608271019353
  0
LINE
  5
212
100
AcDbEntity
  8
0
  6
ByLayer
 62
  256
370
   -1
100
AcDbLine
 10
147.7577257544972
 20
89.15608271019353
 11
148.9577257544972
 21
89.15608237095442
  0
LINE
  5
213
100
AcDbEntity
  8
0
  6
ByLayer
 62
  256
370
   -1
100
AcDbLine
 10
130.0274229746738
 20
85.15608254057402
 11
147.7577246237001
 21
85.15608271019353
  0
ARC
  5
214
100
AcDbEntity
  8
0
  6
ByLayer
 62
  256
370
   -1
100
AcDbCircle
 10
148.3577257544972
 20
68.15608254057402
 40
17
100
AcDbArc
 50
20.66731649351252
 51
87.9773759469338
  0
LINE
  5
215
100
AcDbEntity
  8
0
  6
ByLayer
 62
  256
370
   -1
100
AcDbLine
 10
148.9577257544972
 20
85.14549100585022
 11
148.9577257544972
 21
89.15608237095442
  0
LINE
  5
216
100
AcDbEntity
  8
0
  6
ByLayer
 62
  256
370
   -1
100
AcDbLine
 10
166.0107126147906
 20
74.15608254057393
 11
166.0107137455878
 21
78.15608254057402
  0
LINE
  5
217
100
AcDbEntity
  8
0
  6
ByLayer
 62
  256
370
   -1
100
AcDbLine
 10
166.0107137455878
 20
78.15608254057402
 11
167.2107137455877
 21
78.15608220133491
  0
LINE
  5
218
100
AcDbEntity
  8
0
  6
ByLayer
 62
  256
370
   -1
100
AcDbLine
 10
167.2107137455878
 20
74.15608237095442
 11
167.2107137455877
 21
78.15608220133491
  0
LINE
  5
219
100
AcDbEntity
  8
0
  6
ByLayer
 62
  256
370
   -1
100
AcDbLine
 10
164.2636994750841
 20
74.15608254057393
 11
166.0107126147906
 21
74.15608254057393
  0
LINE
  5
21A
100
AcDbEntity
  8
0
  6
ByLayer
 62
  256
370
   -1
100
AcDbLine
 10
167.2107137455878
 20
74.15608237095442
 11
172.6270479535205
 21
74.15608254057393
  0
ARC
  5
21B
100
AcDbEntity
  8
0
  6
ByLayer
 62
  256
370
   -1
100
AcDbCircle
 10
199.4882147674946
 20
96.83732856570921
 40
25
100
AcDbArc
 50
73.88654036262893
 51
197.1563569564037
  0
LINE
  5
21C
100
AcDbEntity
  8
0
  6
ByLayer
 62
  256
370
   -1
100
AcDbLine
 10
184.4657821908657
 20
104.8177124289493
 11
181.0016811411265
 21
106.8177134082483
  0
LINE
  5
21D
100
AcDbEntity
  8
0
  6
ByLayer
 62
  256
370
   -1
100
AcDbLine
 10
181.0016811411265
 20
106.8177134082483
 11
181.6016814349162
 21
107.8569437231701
  0
LINE
  5
21E
100
AcDbEntity
  8
0
  6
ByLayer
 62
  256
370
   -1
100
AcDbLine
 10
175.6006315132474
 20
89.46282069932163
 11
184.4657821908657
 21
104.8177124289493
  0
ARC
  5
21F
100
AcDbEntity
  8
0
  6
ByLayer
 62
  256
370
   -1
100
AcDbCircle
 10
199.4882147674946
 20
96.83732856570921
 40
17
100
AcDbArc
 50
80.66731649351252
 51
147.9773759469338
  0
LINE
  5
220
100
AcDbEntity
  8
0
  6
ByLayer
 62
  256
370
   -1
100
AcDbLine
 10
185.0749554412949
 20
105.851648040618
 11
181.6016814349162
 21
107.8569437231701
  0
LINE
  5
221
100
AcDbEntity
  8
0
  6
ByLayer
 62
  256
370
   -1
100
AcDbLine
 10
203.1185557749346
 20
115.1252636393962
 11
199.6544547251954
 21
117.1252646186953
  0
LINE
  5
222
100
AcDbEntity
  8
0
  6
ByLayer
 62
  256
370
   -1
100
AcDbLine
 10
199.6544547251954
 20
117.1252646186953
 11
200.2544550189851
 21
118.164494933617
  0
LINE
  5
223
100
AcDbEntity
  8
0
  6
ByLayer
 62
  256
370
   -1
100
AcDbLine
 10
203.718556487228
 20
116.1644950184269
 11
200.2544550189851
 21
118.164494933617
  0
LINE
  5
224
100
AcDbEntity
  8
0
  6
ByLayer
 62
  256
370
   -1
100
AcDbLine
 10
202.2450492050814
 20
113.6123058796651
 11
203.1185557749346
 21
115.1252636393962
  0
LINE
  5
225
100
AcDbEntity
  8
0
  6
ByLayer
 62
  256
370
   -1
100
AcDbLine
 10
203.718556487228
 20
116.1644950184269
 11
206.4267234442996
 21
120.855178122693
  0
ARC
  5
226
100
AcDbEntity
  8
0
  6
ByLayer
 62
  256
370
   -1
100
AcDbCircle
 10
200.2147716040346
 20
155.4582539714536
 40
25
100
AcDbArc
 50
133.8865403626289
 51
257.1563569564037
  0
LINE
  5
227
100
AcDbEntity
  8
0
  6
ByLayer
 62
  256
370
   -1
100
AcDbLine
 10
185.7923401582029
 20
146.4386376650742
 11
182.3282379776665
 21
144.4386386443732
  0
LINE
  5
228
100
AcDbEntity
  8
0
  6
ByLayer
 62
  256
370
   -1
100
AcDbLine
 10
182.3282379776665
 20
144.4386386443732
 11
181.7282382714563
 21
145.4778692985341
  0
LINE
  5
229
100
AcDbEntity
  8
0
  6
ByLayer
 62
  256
370
   -1
100
AcDbLine
 10
194.6574911296109
 20
131.0837461050661
 11
185.7923401582029
 21
146.4386376650742
  0
ARC
  5
22A
100
AcDbEntity
  8
0
  6
ByLayer
 62
  256
370
   -1
100
AcDbCircle
 10
200.2147716040346
 20
155.4582539714536
 40
17
100
AcDbArc
 50
140.6673164935125
 51
207.9773759469338
  0
LINE
  5
22B
100
AcDbEntity
  8
0
  6
ByLayer
 62
  256
370
   -1
100
AcDbLine
 10
185.201512277835
 20
147.4831649810862
 11
181.7282382714563
 21
145.4778692985341
  0
LINE
  5
22C
100
AcDbEntity
  8
0
  6
ByLayer
 62
  256
370
   -1
100
AcDbLine
 10
186.1921257511813
 20
167.7461890451406
 11
182.7280235706449
 21
165.7461900244397
  0
LINE
  5
22D
100
AcDbEntity
  8
0
  6
ByLayer
 62
  256
370
   -1
100
AcDbLine
 10
182.7280235706449
 20
165.7461900244397
 11
182.1280238644347
 21
166.7854206786005
  0
LINE
  5
22E
100
AcDbEntity
  8
0
  6
ByLayer
 62
  256
370
   -1
100
AcDbLine
 10
185.5921253326775
 20
168.7854205937908
 11
182.1280238644347
 21
166.7854206786005
  0
LINE
  5
22F
100
AcDbEntity
  8
0
  6
ByLayer
 62
  256
370
   -1
100
AcDbLine
 10
187.0656323210346
 20
166.2332312854096
 11
186.1921257511813
 21
167.7461890451406
  0
LINE
  5
230
100
AcDbEntity
  8
0
  6
ByLayer
 62
  256
370
   -1
100
AcDbLine
 10
185.5921253326775
 20
168.7854205937908
 11
182.8839580818164
 21
173.4761035284374
  0
ARC
  5
231
100
AcDbEntity
  8
0
  6
ByLayer
 62
  256
370
   -1
100
AcDbCircle
 10
149.8108394275774
 20
185.3979333520628
 40
25
100
AcDbArc
 50
193.8865403626289
 51
317.1563569564037
  0
LINE
  5
232
100
AcDbEntity
  8
0
  6
ByLayer
 62
  256
370
   -1
100
AcDbLine
 10
150.4108405583745
 20
168.3979331824433
 11
150.4108394275773
 21
164.3979331824433
  0
LINE
  5
233
100
AcDbEntity
  8
0
  6
ByLayer
 62
  256
370
   -1
100
AcDbLine
 10
150.4108394275773
 20
164.3979331824433
 11
149.2108394275774
 21
164.3979335216824
  0
LINE
  5
234
100
AcDbEntity
  8
0
  6
ByLayer
 62
  256
370
   -1
100
AcDbLine
 10
168.1411422074008
 20
168.3979333520628
 11
150.4108405583745
 21
168.3979331824433
  0
ARC
  5
235
100
AcDbEntity
  8
0
  6
ByLayer
 62
  256
370
   -1
100
AcDbCircle
 10
149.8108394275774
 20
185.3979333520628
 40
17
100
AcDbArc
 50
200.6673164935125
 51
267.9773759469338
  0
LINE
  5
236
100
AcDbEntity
  8
0
  6
ByLayer
 62
  256
370
   -1
100
AcDbLine
 10
149.2108394275774
 20
168.4085248867866
 11
149.2108394275774
 21
164.3979335216824
  0
LINE
  5
237
100
AcDbEntity
  8
0
  6
ByLayer
 62
  256
370
   -1
100
AcDbLine
 10
132.157852567284
 20
179.3979333520629
 11
132.1578514364868
 21
175.3979333520628
  0
LINE
  5
238
100
AcDbEntity
  8
0
  6
ByLayer
 62
  256
370
   -1
100
AcDbLine
 10
132.1578514364868
 20
175.3979333520628
 11
130.9578514364869
 21
175.3979336913019
  0
LINE
  5
239
100
AcDbEntity
  8
0
  6
ByLayer
 62
  256
370
   -1
100
AcDbLine
 10
130.9578514364868
 20
179.3979335216824
 11
130.9578514364869
 21
175.3979336913019
  0
LINE
  5
23A
100
AcDbEntity
  8
0
  6
ByLayer
 62
  256
370
   -1
100
AcDbLine
 10
133.9048657069905
 20
179.3979333520629
 11
132.157852567284
 21
179.3979333520629
  0
LINE
  5
23B
100
AcDbEntity
  8
0
  6
ByLayer
 62
  256
370
   -1
100
AcDbLine
 10
130.9578514364868
 20
179.3979335216824
 11
125.5415172285541
 21
179.3979333520629
  0
ARC
  5
23C
100
AcDbEntity
  8
0
  6
ByLayer
 62
  256
370
   -1
100
AcDbCircle
 10
98.68035041458006
 20
156.7166873269276
 40
25
100
AcDbArc
 50
253.8865403626289
 51
17.15635695640368
  0
LINE
  5
23D
100
AcDbEntity
  8
0
  6
ByLayer
 62
  256
370
   -1
100
AcDbLine
 10
113.7027829912089
 20
148.7363034636875
 11
117.1668840409481
 21
146.7363024843885
  0
LINE
  5
23E
100
AcDbEntity
  8
0
  6
ByLayer
 62
  256
370
   -1
100
AcDbLine
 10
117.1668840409481
 20
146.7363024843885
 11
116.5668837471584
 21
145.6970721694667
  0
LINE
  5
23F
100
AcDbEntity
  8
0
  6
ByLayer
 62
  256
370
   -1
100
AcDbLine
 10
122.5679336688272
 20
164.0911951933152
 11
113.7027829912089
 21
148.7363034636875
  0
ARC
  5
240
100
AcDbEntity
  8
0
  6
ByLayer
 62
  256
370
   -1
100
AcDbCircle
 10
98.68035041458006
 20
156.7166873269276
 40
17
100
AcDbArc
 50
260.6673164935125
 51
327.9773759469338
  0
LINE
  5
241
100
AcDbEntity
  8
0
  6
ByLayer
 62
  256
370
   -1
100
AcDbLine
 10
113.0936097407797
 20
147.7023678520188
 11
116.5668837471584
 21
145.6970721694667
  0
LINE
  5
242
100
AcDbEntity
  8
0
  6
ByLayer
 62
  256
370
   -1
100
AcDbLine
 10
95.05000940713998
 20
138.4287522532406
 11
98.51411045687918
 21
136.4287512739415
  0
LINE
  5
243
100
AcDbEntity
  8
0
  6
ByLayer
 62
  256
370
   -1
100
AcDbLine
 10
98.51411045687918
 20
136.4287512739415
 11
97.91411016308952
 21
135.3895209590198
  0
LINE
  5
244
100
AcDbEntity
  8
0
  6
ByLayer
 62
  256
370
   -1
100
AcDbLine
 10
94.45000869484657
 20
137.38952087421
 11
97.91411016308952
 21
135.3895209590198
  0
LINE
  5
245
100
AcDbEntity
  8
0
  6
ByLayer
 62
  256
370
   -1
100
AcDbLine
 10
95.92351597699323
 20
139.9417100129717
 11
95.05000940713998
 21
138.4287522532406
  0
LINE
  5
246
100
AcDbEntity
  8
0
  6
ByLayer
 62
  256
370
   -1
100
AcDbLine
 10
94.45000869484657
 20
137.38952087421
 11
91.74184173777502
 21
132.6988377699438
  0
ARC
  5
247
100
AcDbEntity
  8
0
  6
ByLayer
 62
  256
370
   -1
100
AcDbCircle
 10
97.95379357803996
 20
98.0957619211832
 40
25
100
AcDbArc
 50
313.8865403626289
 51
77.15635695640366
  0
LINE
  5
248
100
AcDbEntity
  8
0
  6
ByLayer
 62
  256
370
   -1
100
AcDbLine
 10
112.3762250238717
 20
107.1153782275626
 11
115.8403272044081
 21
109.1153772482636
  0
LINE
  5
249
100
AcDbEntity
  8
0
  6
ByLayer
 62
  256
370
   -1
100
AcDbLine
 10
115.8403272044081
 20
109.1153772482636
 11
116.4403269106183
 21
108.0761465941027
  0
LINE
  5
24A
100
AcDbEntity
  8
0
  6
ByLayer
 62
  256
370
   -1
100
AcDbLine
 10
103.5110740524637
 20
122.4702697875708
 11
112.3762250238717
 21
107.1153782275626
  0
ARC
  5
24B
100
AcDbEntity
  8
0
  6
ByLayer
 62
  256
370
   -1
100
AcDbCircle
 10
97.95379357803996
 20
98.0957619211832
 40
17
100
AcDbArc
 50
320.6673164935125
 51
27.97737594693379
  0
LINE
  5
24C
100
AcDbEntity
  8
0
  6
ByLayer
 62
  256
370
   -1
100
AcDbLine
 10
112.9670529042396
 20
106.0708509115506
 11
116.4403269106183
 21
108.0761465941027
  0
LINE
  5
24D
100
AcDbEntity
  8
0
  6
ByLayer
 62
  256
370
   -1
100
AcDbLine
 10
111.9764394308933
 20
85.80782684749623
 11
115.4405416114297
 21
87.80782586819713
  0
LINE
  5
24E
100
AcDbEntity
  8
0
  6
ByLayer
 62
  256
370
   -1
100
AcDbLine
 10
115.4405416114297
 20
87.80782586819713
 11
116.0405413176399
 21
86.76859521403632
  0
LINE
  5
24F
100
AcDbEntity
  8
0
  6
ByLayer
 62
  256
370
   -1
100
AcDbLine
 10
112.576439849397
 20
84.76859529884602
 11
116.0405413176399
 21
86.76859521403632
  0
LINE
  5
250
100
AcDbEntity
  8
0
  6
ByLayer
 62
  256
370
   -1
100
AcDbLine
 10
111.10293286104
 20
87.32078460722722
 11
111.9764394308933
 21
85.80782684749623
  0
LINE
  5
251
100
AcDbEntity
  8
0
  6
ByLayer
 62
  256
370
   -1
100
AcDbLine
 10
112.576439849397
 20
84.76859529884602
 11
115.2846071002582
 21
80.07791236419941
  0
ARC
  5
252
100
AcDbEntity
  8
0
  6
ByLayer
 62
  256
370
   -1
100
AcDbCircle
 10
154.3536047900606
 20
89.77700794631843
 40
25
100
AcDbArc
 50
193.8865403626289
 51
317.1563569564037
  0
LINE
  5
253
100
AcDbEntity
  8
0
  6
ByLayer
 62
  256
370
   -1
100
AcDbLine
 10
154.9536059208577
 20
72.77700777669882
 11
154.9536047900606
 21
68.77700777669882
  0
LINE
  5
254
100
AcDbEntity
  8
0
  6
ByLayer
 62
  256
370
   -1
100
AcDbLine
 10
154.9536047900606
 20
68.77700777669882
 11
153.7536047900606
 21
68.77700811593793
  0
LINE
  5
255
100
AcDbEntity
  8
0
  6
ByLayer
 62
  256
370
   -1
100
AcDbLine
 10
172.683907569884
 20
72.77700794631842
 11
154.9536059208577
 21
72.77700777669882
  0
ARC
  5
256
100
AcDbEntity
  8
0
  6
ByLayer
 62
  256
370
   -1
100
AcDbCircle
 10
154.3536047900606
 20
89.77700794631843
 40
17
100
AcDbArc
 50
200.6673164935125
 51
267.9773759469338
  0
LINE
  5
257
100
AcDbEntity
  8
0
  6
ByLayer
 62
  256
370
   -1
100
AcDbLine
 10
153.7536047900606
 20
72.78759948104211
 11
153.7536047900606
 21
68.77700811593793
  0
LINE
  5
258
100
AcDbEntity
  8
0
  6
ByLayer
 62
  256
370
   -1
100
AcDbLine
 10
136.7006179297672
 20
83.77700794631842
 11
136.70061679897
 21
79.77700794631831
  0
LINE
  5
259
100
AcDbEntity
  8
0
  6
ByLayer
 62
  256
370
   -1
100
AcDbLine
 10
136.70061679897
 20
79.77700794631831
 11
135.5006167989701
 21
79.77700828555753
  0
LINE
  5
25A
100
AcDbEntity
  8
0
  6
ByLayer
 62
  256
370
   -1
100
AcDbLine
 10
135.50061679897
 20
83.77700811593793
 11
135.5006167989701
 21
79.77700828555753
  0
LINE
  5
25B
100
AcDbEntity
  8
0
  6
ByLayer
 62
  256
370
   -1
100
AcDbLine
 10
138.4476310694737
 20
83.77700794631842
 11
136.7006179297672
 21
83.77700794631842
  0
LINE
  5
25C
100
AcDbEntity
  8
0
  6
ByLayer
 62
  256
370
   -1
100
AcDbLine
 10
135.50061679897
 20
83.77700811593793
 11
130.0842825910373
 21
83.77700794631842
  0
ENDSEC
  0
SECTION
  2
OBJECTS
  0
DICTIONARY
  5
C
330
0
100
AcDbDictionary
281
    1
  3
ACAD_GROUP
350
D
  0
DICTIONARY
  5
D
330
C
100
AcDbDictionary
281
    1
  0
ENDSEC
  0
EOF
